  0
SECTION
  2
HEADER
  9
$ACADVER
  1
AC1015
  9
$ACADMAINTVER
 70
     6
  9
$DWGCODEPAGE
  3
ANSI_1252
  9
$INSBASE
 10
0.0
 20
0.0
 30
0.0
  9
$EXTMIN
 10
0.0
 20
0.0
 30
0.0
  9
$EXTMAX
 10
2376.0
 20
1680.0
 30
0.0
  9
$LIMMIN
 10
0.0
 20
0.0
  9
$LIMMAX
 10
2376.0
 20
1680.0
  9
$ORTHOMODE
 70
     0
  9
$REGENMODE
 70
     1
  9
$FILLMODE
 70
     1
  9
$QTEXTMODE
 70
     0
  9
$MIRRTEXT
 70
     1
  9
$LTSCALE
 40
1.0
  9
$ATTMODE
 70
     1
  9
$TEXTSIZE
 40
2.5
  9
$TRACEWID
 40
1.0
  9
$TEXTSTYLE
  7
Standard
  9
$CLAYER
  8
0
  9
$CELTYPE
  6
ByLayer
  9
$CECOLOR
 62
   256
  9
$CELTSCALE
 40
1.0
  9
$DISPSILH
 70
     0
  9
$DIMSCALE
 40
1.0
  9
$DIMASZ
 40
2.5
  9
$DIMEXO
 40
0.625
  9
$DIMDLI
 40
3.75
  9
$DIMRND
 40
0.0
  9
$DIMDLE
 40
0.0
  9
$DIMEXE
 40
1.25
  9
$DIMTP
 40
0.0
  9
$DIMTM
 40
0.0
  9
$DIMTXT
 40
2.5
  9
$DIMCEN
 40
2.5
  9
$DIMTSZ
 40
0.0
  9
$DIMTOL
 70
     0
  9
$DIMLIM
 70
     0
  9
$DIMTIH
 70
     0
  9
$DIMTOH
 70
     0
  9
$DIMSE1
 70
     0
  9
$DIMSE2
 70
     0
  9
$DIMTAD
 70
     1
  9
$DIMZIN
 70
     8
  9
$DIMBLK
  1

  9
$DIMASO
 70
     1
  9
$DIMSHO
 70
     1
  9
$DIMPOST
  1

  9
$DIMAPOST
  1

  9
$DIMALT
 70
     0
  9
$DIMALTD
 70
     3
  9
$DIMALTF
 40
0.0393700787
  9
$DIMLFAC
 40
1.0
  9
$DIMTOFL
 70
     1
  9
$DIMTVP
 40
0.0
  9
$DIMTIX
 70
     0
  9
$DIMSOXD
 70
     0
  9
$DIMSAH
 70
     0
  9
$DIMBLK1
  1

  9
$DIMBLK2
  1

  9
$DIMSTYLE
  2
ISO-25
  9
$DIMCLRD
 70
     0
  9
$DIMCLRE
 70
     0
  9
$DIMCLRT
 70
     0
  9
$DIMTFAC
 40
1.0
  9
$DIMGAP
 40
0.625
  9
$DIMJUST
 70
     0
  9
$DIMSD1
 70
     0
  9
$DIMSD2
 70
     0
  9
$DIMTOLJ
 70
     0
  9
$DIMTZIN
 70
     8
  9
$DIMALTZ
 70
     0
  9
$DIMALTTZ
 70
     0
  9
$DIMUPT
 70
     0
  9
$DIMDEC
 70
     2
  9
$DIMTDEC
 70
     2
  9
$DIMALTU
 70
     2
  9
$DIMALTTD
 70
     3
  9
$DIMTXSTY
  7
Standard
  9
$DIMAUNIT
 70
     0
  9
$DIMADEC
 70
     0
  9
$DIMALTRND
 40
0.0
  9
$DIMAZIN
 70
     0
  9
$DIMDSEP
 70
    44
  9
$DIMATFIT
 70
     3
  9
$DIMFRAC
 70
     0
  9
$DIMLDRBLK
  1

  9
$DIMLUNIT
 70
     2
  9
$DIMLWD
 70
    -2
  9
$DIMLWE
 70
    -2
  9
$DIMTMOVE
 70
     0
  9
$LUNITS
 70
     2
  9
$LUPREC
 70
     4
  9
$SKETCHINC
 40
1.0
  9
$FILLETRAD
 40
10.0
  9
$AUNITS
 70
     0
  9
$AUPREC
 70
     0
  9
$MENU
  1
.
  9
$ELEVATION
 40
0.0
  9
$PELEVATION
 40
0.0
  9
$THICKNESS
 40
0.0
  9
$LIMCHECK
 70
     0
  9
$CHAMFERA
 40
10.0
  9
$CHAMFERB
 40
10.0
  9
$CHAMFERC
 40
20.0
  9
$CHAMFERD
 40
0.0
  9
$SKPOLY
 70
     0
  9
$TDCREATE
 40
2454775.523250324
  9
$TDUCREATE
 40
2454775.481583657
  9
$TDUPDATE
 40
2454775.523250336
  9
$TDUUPDATE
 40
2454775.481583669
  9
$TDINDWG
 40
0.0000000116
  9
$TDUSRTIMER
 40
0.0000000116
  9
$USRTIMER
 70
     1
  9
$ANGBASE
 50
0.0
  9
$ANGDIR
 70
     0
  9
$PDMODE
 70
     0
  9
$PDSIZE
 40
0.0
  9
$PLINEWID
 40
0.0
  9
$SPLFRAME
 70
     0
  9
$SPLINETYPE
 70
     6
  9
$SPLINESEGS
 70
     8
  9
$HANDSEED
  5
198
  9
$SURFTAB1
 70
     6
  9
$SURFTAB2
 70
     6
  9
$SURFTYPE
 70
     6
  9
$SURFU
 70
     6
  9
$SURFV
 70
     6
  9
$UCSBASE
  2

  9
$UCSNAME
  2

  9
$UCSORG
 10
0.0
 20
0.0
 30
0.0
  9
$UCSXDIR
 10
1.0
 20
0.0
 30
0.0
  9
$UCSYDIR
 10
0.0
 20
1.0
 30
0.0
  9
$UCSORTHOREF
  2

  9
$UCSORTHOVIEW
 70
     0
  9
$UCSORGTOP
 10
0.0
 20
0.0
 30
0.0
  9
$UCSORGBOTTOM
 10
0.0
 20
0.0
 30
0.0
  9
$UCSORGLEFT
 10
0.0
 20
0.0
 30
0.0
  9
$UCSORGRIGHT
 10
0.0
 20
0.0
 30
0.0
  9
$UCSORGFRONT
 10
0.0
 20
0.0
 30
0.0
  9
$UCSORGBACK
 10
0.0
 20
0.0
 30
0.0
  9
$PUCSBASE
  2

  9
$PUCSNAME
  2

  9
$PUCSORG
 10
0.0
 20
0.0
 30
0.0
  9
$PUCSXDIR
 10
1.0
 20
0.0
 30
0.0
  9
$PUCSYDIR
 10
0.0
 20
1.0
 30
0.0
  9
$PUCSORTHOREF
  2

  9
$PUCSORTHOVIEW
 70
     0
  9
$PUCSORGTOP
 10
0.0
 20
0.0
 30
0.0
  9
$PUCSORGBOTTOM
 10
0.0
 20
0.0
 30
0.0
  9
$PUCSORGLEFT
 10
0.0
 20
0.0
 30
0.0
  9
$PUCSORGRIGHT
 10
0.0
 20
0.0
 30
0.0
  9
$PUCSORGFRONT
 10
0.0
 20
0.0
 30
0.0
  9
$PUCSORGBACK
 10
0.0
 20
0.0
 30
0.0
  9
$USERI1
 70
     0
  9
$USERI2
 70
     0
  9
$USERI3
 70
     0
  9
$USERI4
 70
     0
  9
$USERI5
 70
     0
  9
$USERR1
 40
0.0
  9
$USERR2
 40
0.0
  9
$USERR3
 40
0.0
  9
$USERR4
 40
0.0
  9
$USERR5
 40
0.0
  9
$WORLDVIEW
 70
     1
  9
$SHADEDGE
 70
     3
  9
$SHADEDIF
 70
    70
  9
$TILEMODE
 70
     1
  9
$MAXACTVP
 70
    64
  9
$PINSBASE
 10
0.0
 20
0.0
 30
0.0
  9
$PLIMCHECK
 70
     0
  9
$PEXTMIN
 10
0.0
 20
0.0
 30
0.0
  9
$PEXTMAX
 10
2376.0
 20
1680.0
 30
0.0
  9
$PLIMMIN
 10
0.0
 20
0.0
  9
$PLIMMAX
 10
2376.0
 20
1680.0
  9
$UNITMODE
 70
     0
  9
$VISRETAIN
 70
     1
  9
$PLINEGEN
 70
     0
  9
$PSLTSCALE
 70
     1
  9
$TREEDEPTH
 70
  3020
  9
$CMLSTYLE
  2
Standard
  9
$CMLJUST
 70
     0
  9
$CMLSCALE
 40
20.0
  9
$PROXYGRAPHICS
 70
     1
  9
$MEASUREMENT
 70
     1
  9
$CELWEIGHT
370
    -1
  9
$ENDCAPS
280
     0
  9
$JOINSTYLE
280
     0
  9
$LWDISPLAY
290
     0
  9
$INSUNITS
 70
     4
  9
$HYPERLINKBASE
  1

  9
$STYLESHEET
  1

  9
$XEDIT
290
     1
  9
$CEPSNTYPE
380
     0
  9
$PSTYLEMODE
290
     1
  9
$FINGERPRINTGUID
  2
{4364AD17-2034-40D5-8DB8-B92BA13AC2FF}
  9
$VERSIONGUID
  2
{FAEB1C32-E019-11D5-929B-00C0DF256EC4}
  9
$EXTNAMES
290
     1
  9
$PSVPSCALE
 40
0.0
  9
$OLESTARTUP
290
     0
  0
ENDSEC
  0
SECTION
  2
CLASSES
  0
CLASS
  1
ACDBDICTIONARYWDFLT
  2
AcDbDictionaryWithDefault
  3
ObjectDBX Classes
 90
        0
280
     0
281
     0
  0
CLASS
  1
RASTERVARIABLES
  2
AcDbRasterVariables
  3
ISM
 90
        0
280
     0
281
     0
  0
CLASS
  1
IMAGEDEF
  2
AcDbRasterImageDef
  3
ISM
 90
        0
280
     0
281
     0
  0
CLASS
  1
IMAGE
  2
AcDbRasterImage
  3
ISM
 90
      127
280
     0
281
     1
  0
CLASS
  1
IMAGEDEF_REACTOR
  2
AcDbRasterImageDefReactor
  3
ISM
 90
        1
280
     0
281
     0
  0
CLASS
  1
ACDBPLACEHOLDER
  2
AcDbPlaceHolder
  3
ObjectDBX Classes
 90
        0
280
     0
281
     0
  0
CLASS
  1
LAYOUT
  2
AcDbLayout
  3
ObjectDBX Classes
 90
        0
280
     0
281
     0
  0
ENDSEC
  0
SECTION
  2
TABLES
  0
TABLE
  2
VPORT
  5
8
330
0
100
AcDbSymbolTable
 70
     1
  0
VPORT
  5
29
330
8
100
AcDbSymbolTableRecord
100
AcDbViewportTableRecord
  2
*Active
 70
     0
 10
0.0
 20
0.0
 11
1.0
 21
1.0
 12
344.1869158879
 22
148.5
 13
0.0
 23
0.0
 14
10.0
 24
10.0
 15
10.0
 25
10.0
 16
0.0
 26
0.0
 36
1.0
 17
0.0
 27
0.0
 37
0.0
 40
297.0
 41
1.9729729729
 42
50.0
 43
0.0
 44
0.0
 50
0.0
 51
0.0
 71
     0
 72
   100
 73
     1
 74
     3
 75
     0
 76
     0
 77
     0
 78
     0
281
     0
 65
     1
110
0.0
120
0.0
130
0.0
111
1.0
121
0.0
131
0.0
112
0.0
122
1.0
132
0.0
 79
     0
146
0.0
  0
ENDTAB
  0
TABLE
  2
LTYPE
  5
5
330
0
100
AcDbSymbolTable
 70
     3
  0
LTYPE
  5
14
330
5
100
AcDbSymbolTableRecord
100
AcDbLinetypeTableRecord
  2
ByBlock
 70
     0
  3

 72
    65
 73
     0
 40
0.0
  0
LTYPE
  5
15
330
5
100
AcDbSymbolTableRecord
100
AcDbLinetypeTableRecord
  2
ByLayer
 70
     0
  3

 72
    65
 73
     0
 40
0.0
  0
LTYPE
  5
16
330
5
100
AcDbSymbolTableRecord
100
AcDbLinetypeTableRecord
  2
Continuous
 70
     0
  3
Solid line
 72
    65
 73
     0
 40
0.0
  0
LTYPE
  5
30
330
5
100
AcDbSymbolTableRecord
100
AcDbLinetypeTableRecord
  2
CENTER2
 70
     0
  3
Center (.5x) ___ _ ___ _ ___ _ ___ _ ___ _ ___
 72
    65
 73
     4
 40
28.575
 49
19.05
 74
     4
 75
     0
340
0
 46
0.0
 50
0.0
 44
0.0
 45
0.0
 49
-3.175
 74
     4
 75
     0
340
0
 46
0.0
 50
0.0
 44
0.0
 45
0.0
 49
3.175
 74
     4
 75
     0
340
0
 46
0.0
 50
0.0
 44
0.0
 45
0.0
 49
-3.175
 74
     4
 75
     0
340
0
 46
0.0
 50
0.0
 44
0.0
 45
0.0
  0
LTYPE
  5
49
330
5
100
AcDbSymbolTableRecord
100
AcDbLinetypeTableRecord
  2
HIDDEN2
 70
     0
  3
Hidden (.5x) _ _ _ _ _ _ _ _ _ _ _ _ _ _ _ _ _ 
 72
    65
 73
     2
 40
4.7625
 49
3.175
 74
     4
 75
     0
340
0
 46
0.0
 50
0.0
 44
0.0
 45
0.0
 49
-1.5875
 74
     4
 75
     0
340
0
 46
0.0
 50
0.0
 44
0.0
 45
0.0
  0
ENDTAB
  0
TABLE
  2
LAYER
  5
2
330
0
100
AcDbSymbolTable
 70
     5
  0
LAYER
  5
10
330
2
100
AcDbSymbolTableRecord
100
AcDbLayerTableRecord
  2
0
 70
     0
 62
     7
  6
Continuous
370
    -3
390
F
  0
LAYER
  5
2C
330
2
100
AcDbSymbolTableRecord
100
AcDbLayerTableRecord
  2
Default
 70
     0
 62
     7
  6
Continuous
370
    -3
390
F
  0
LAYER
  5
48
330
2
100
AcDbSymbolTableRecord
100
AcDbLayerTableRecord
  2
WIND
 70
     0
 62
     7
  6
Continuous
370
    -3
390
F
  0
LAYER
  5
126
330
2
100
AcDbSymbolTableRecord
100
AcDbLayerTableRecord
  2
1
 70
     0
 62
     7
  6
Continuous
370
    -3
390
F
  0
LAYER
  5
132
330
2
100
AcDbSymbolTableRecord
100
AcDbLayerTableRecord
  2
Predefinito
 70
     0
 62
     7
  6
Continuous
370
    -3
390
F
  0
ENDTAB
  0
TABLE
  2
STYLE
  5
3
330
0
100
AcDbSymbolTable
 70
     6
  0
STYLE
  5
11
330
3
100
AcDbSymbolTableRecord
100
AcDbTextStyleTableRecord
  2
Standard
 70
     0
 40
0.0
 41
1.0
 50
0.0
 71
     0
 42
2.5
  3
txt
  4

  0
STYLE
  5
2A
330
3
100
AcDbSymbolTableRecord
100
AcDbTextStyleTableRecord
  2
SEACAD_seiso_ttf
 70
     0
 40
0.0
 41
1.0
 50
0.0
 71
     0
 42
0.2
  3
seiso.ttf
  4

  0
STYLE
  5
CA
330
3
100
AcDbSymbolTableRecord
100
AcDbTextStyleTableRecord
  2
SEACAD_semeca1_ttf
 70
     0
 40
0.0
 41
1.0
 50
0.0
 71
     0
 42
0.2
  3
semeca1.ttf
  4

  0
STYLE
  5
CC
330
3
100
AcDbSymbolTableRecord
100
AcDbTextStyleTableRecord
  2
SEACAD_arial_ttf
 70
     0
 40
0.0
 41
1.0
 50
0.0
 71
     0
 42
0.2
  3
arial.ttf
  4

  0
STYLE
  5
130
330
3
100
AcDbSymbolTableRecord
100
AcDbTextStyleTableRecord
  2
SEACAD_seiso_ttfBI
 70
     0
 40
0.0
 41
1.0
 50
0.0
 71
     0
 42
0.2
  3
seiso.ttf
  4

  0
STYLE
  5
13C
330
3
100
AcDbSymbolTableRecord
100
AcDbTextStyleTableRecord
  2
SEACAD_seiso_ttfB
 70
     0
 40
0.0
 41
1.0
 50
0.0
 71
     0
 42
0.2
  3
seiso.ttf
  4

  0
ENDTAB
  0
TABLE
  2
VIEW
  5
6
330
0
100
AcDbSymbolTable
 70
     0
  0
ENDTAB
  0
TABLE
  2
UCS
  5
7
330
0
100
AcDbSymbolTable
 70
     0
  0
ENDTAB
  0
TABLE
  2
APPID
  5
9
330
0
100
AcDbSymbolTable
 70
     1
  0
APPID
  5
12
330
9
100
AcDbSymbolTableRecord
100
AcDbRegAppTableRecord
  2
ACAD
 70
     0
  0
ENDTAB
  0
TABLE
  2
DIMSTYLE
  5
A
330
0
100
AcDbSymbolTable
 70
     1
100
AcDbDimStyleTable
  0
DIMSTYLE
105
27
330
A
100
AcDbSymbolTableRecord
100
AcDbDimStyleTableRecord
  2
ISO-25
 70
     0
 41
2.5
 42
0.625
 43
3.75
 44
1.25
 73
     0
 74
     0
 77
     1
 78
     8
140
2.5
141
2.5
143
0.0393700787
147
0.625
171
     3
172
     1
271
     2
272
     2
274
     3
278
    44
283
     0
284
     8
340
11
  0
ENDTAB
  0
TABLE
  2
BLOCK_RECORD
  5
1
330
0
100
AcDbSymbolTable
 70
    27
  0
BLOCK_RECORD
  5
1F
330
1
100
AcDbSymbolTableRecord
100
AcDbBlockTableRecord
  2
*Model_Space
340
22
  0
BLOCK_RECORD
  5
1B
330
1
100
AcDbSymbolTableRecord
100
AcDbBlockTableRecord
  2
*Paper_Space
340
1E
  0
BLOCK_RECORD
  5
2E
330
1
100
AcDbSymbolTableRecord
100
AcDbBlockTableRecord
  2
SEANNOT_GROUP
340
0
102
{BLKREFS
331
2F
102
}
1001
ACAD
1000
DesignCenter Data
1002
{
1070
     1
1070
     0
1002
}
  0
BLOCK_RECORD
  5
34
330
1
100
AcDbSymbolTableRecord
100
AcDbBlockTableRecord
  2
SEANNOT_GROUP1
340
0
102
{BLKREFS
331
35
102
}
1001
ACAD
1000
DesignCenter Data
1002
{
1070
     1
1070
     0
1002
}
  0
BLOCK_RECORD
  5
3E
330
1
100
AcDbSymbolTableRecord
100
AcDbBlockTableRecord
  2
SEANNOT_GROUP2
340
0
102
{BLKREFS
331
3F
102
}
1001
ACAD
1000
DesignCenter Data
1002
{
1070
     1
1070
     0
1002
}
  0
BLOCK_RECORD
  5
43
330
1
100
AcDbSymbolTableRecord
100
AcDbBlockTableRecord
  2
SEANNOT_GROUP3
340
0
102
{BLKREFS
331
44
102
}
1001
ACAD
1000
DesignCenter Data
1002
{
1070
     1
1070
     0
1002
}
  0
BLOCK_RECORD
  5
55
330
1
100
AcDbSymbolTableRecord
100
AcDbBlockTableRecord
  2
SE
340
0
102
{BLKREFS
331
56
102
}
1001
ACAD
1000
DesignCenter Data
1002
{
1070
     1
1070
     0
1002
}
  0
BLOCK_RECORD
  5
57
330
1
100
AcDbSymbolTableRecord
100
AcDbBlockTableRecord
  2
SE1
340
0
102
{BLKREFS
331
58
102
}
1001
ACAD
1000
DesignCenter Data
1002
{
1070
     1
1070
     0
1002
}
  0
BLOCK_RECORD
  5
5C
330
1
100
AcDbSymbolTableRecord
100
AcDbBlockTableRecord
  2
SE2
340
0
102
{BLKREFS
331
5D
102
}
1001
ACAD
1000
DesignCenter Data
1002
{
1070
     1
1070
     0
1002
}
  0
BLOCK_RECORD
  5
61
330
1
100
AcDbSymbolTableRecord
100
AcDbBlockTableRecord
  2
SE3
340
0
102
{BLKREFS
331
62
102
}
1001
ACAD
1000
DesignCenter Data
1002
{
1070
     1
1070
     0
1002
}
  0
BLOCK_RECORD
  5
67
330
1
100
AcDbSymbolTableRecord
100
AcDbBlockTableRecord
  2
SE4
340
0
102
{BLKREFS
331
68
102
}
1001
ACAD
1000
DesignCenter Data
1002
{
1070
     1
1070
     0
1002
}
  0
BLOCK_RECORD
  5
C3
330
1
100
AcDbSymbolTableRecord
100
AcDbBlockTableRecord
  2
GDimGGroup
340
0
102
{BLKREFS
331
C4
102
}
1001
ACAD
1000
DesignCenter Data
1002
{
1070
     1
1070
     0
1002
}
  0
BLOCK_RECORD
  5
D0
330
1
100
AcDbSymbolTableRecord
100
AcDbBlockTableRecord
  2
GDimGGroup1
340
0
102
{BLKREFS
331
D1
102
}
1001
ACAD
1000
DesignCenter Data
1002
{
1070
     1
1070
     0
1002
}
  0
BLOCK_RECORD
  5
DA
330
1
100
AcDbSymbolTableRecord
100
AcDbBlockTableRecord
  2
GDimGGroup2
340
0
102
{BLKREFS
331
DB
102
}
1001
ACAD
1000
DesignCenter Data
1002
{
1070
     1
1070
     0
1002
}
  0
BLOCK_RECORD
  5
E4
330
1
100
AcDbSymbolTableRecord
100
AcDbBlockTableRecord
  2
GDimGGroup3
340
0
102
{BLKREFS
331
E5
102
}
1001
ACAD
1000
DesignCenter Data
1002
{
1070
     1
1070
     0
1002
}
  0
BLOCK_RECORD
  5
EE
330
1
100
AcDbSymbolTableRecord
100
AcDbBlockTableRecord
  2
GDimGGroup4
340
0
102
{BLKREFS
331
EF
102
}
1001
ACAD
1000
DesignCenter Data
1002
{
1070
     1
1070
     0
1002
}
  0
BLOCK_RECORD
  5
F8
330
1
100
AcDbSymbolTableRecord
100
AcDbBlockTableRecord
  2
GDimGGroup5
340
0
102
{BLKREFS
331
F9
102
}
1001
ACAD
1000
DesignCenter Data
1002
{
1070
     1
1070
     0
1002
}
  0
BLOCK_RECORD
  5
102
330
1
100
AcDbSymbolTableRecord
100
AcDbBlockTableRecord
  2
GDimGGroup6
340
0
102
{BLKREFS
331
103
102
}
1001
ACAD
1000
DesignCenter Data
1002
{
1070
     1
1070
     0
1002
}
  0
BLOCK_RECORD
  5
12B
330
1
100
AcDbSymbolTableRecord
100
AcDbBlockTableRecord
  2
SEANNOT_GROUP4
340
0
102
{BLKREFS
331
12C
102
}
1001
ACAD
1000
DesignCenter Data
1002
{
1070
     1
1070
     0
1002
}
  0
BLOCK_RECORD
  5
13A
330
1
100
AcDbSymbolTableRecord
100
AcDbBlockTableRecord
  2
SEANNOT_GROUP5
340
0
102
{BLKREFS
331
13B
102
}
1001
ACAD
1000
DesignCenter Data
1002
{
1070
     1
1070
     0
1002
}
  0
BLOCK_RECORD
  5
143
330
1
100
AcDbSymbolTableRecord
100
AcDbBlockTableRecord
  2
SEANNOT_GROUP6
340
0
102
{BLKREFS
331
144
102
}
1001
ACAD
1000
DesignCenter Data
1002
{
1070
     1
1070
     0
1002
}
  0
BLOCK_RECORD
  5
14D
330
1
100
AcDbSymbolTableRecord
100
AcDbBlockTableRecord
  2
SEANNOT_GROUP7
340
0
102
{BLKREFS
331
14E
102
}
1001
ACAD
1000
DesignCenter Data
1002
{
1070
     1
1070
     0
1002
}
  0
BLOCK_RECORD
  5
166
330
1
100
AcDbSymbolTableRecord
100
AcDbBlockTableRecord
  2
SEANNOT_GROUP8
340
0
102
{BLKREFS
331
167
102
}
1001
ACAD
1000
DesignCenter Data
1002
{
1070
     1
1070
     0
1002
}
  0
BLOCK_RECORD
  5
16B
330
1
100
AcDbSymbolTableRecord
100
AcDbBlockTableRecord
  2
SEANNOT_GROUP9
340
0
102
{BLKREFS
331
16C
102
}
1001
ACAD
1000
DesignCenter Data
1002
{
1070
     1
1070
     0
1002
}
  0
BLOCK_RECORD
  5
171
330
1
100
AcDbSymbolTableRecord
100
AcDbBlockTableRecord
  2
SEANNOT_GROUP10
340
0
102
{BLKREFS
331
172
102
}
1001
ACAD
1000
DesignCenter Data
1002
{
1070
     1
1070
     0
1002
}
  0
BLOCK_RECORD
  5
177
330
1
100
AcDbSymbolTableRecord
100
AcDbBlockTableRecord
  2
SEANNOT_GROUP11
340
0
102
{BLKREFS
331
178
102
}
1001
ACAD
1000
DesignCenter Data
1002
{
1070
     1
1070
     0
1002
}
  0
BLOCK_RECORD
  5
17C
330
1
100
AcDbSymbolTableRecord
100
AcDbBlockTableRecord
  2
SEANNOT_GROUP12
340
0
102
{BLKREFS
331
17D
102
}
1001
ACAD
1000
DesignCenter Data
1002
{
1070
     1
1070
     0
1002
}
  0
BLOCK_RECORD
  5
182
330
1
100
AcDbSymbolTableRecord
100
AcDbBlockTableRecord
  2
SEANNOT_GROUP13
340
0
102
{BLKREFS
331
183
102
}
1001
ACAD
1000
DesignCenter Data
1002
{
1070
     1
1070
     0
1002
}
  0
ENDTAB
  0
ENDSEC
  0
SECTION
  2
BLOCKS
  0
BLOCK
  5
20
330
1F
100
AcDbEntity
  8
0
100
AcDbBlockBegin
  2
*Model_Space
 70
     0
 71
     0
 10
0.0
 20
0.0
 30
0.0
  3
*Model_Space
  1

  0
ENDBLK
  5
21
330
1F
100
AcDbEntity
  8
0
100
AcDbBlockEnd
  0
BLOCK
  5
1C
330
1B
100
AcDbEntity
 67
     1
  8
0
100
AcDbBlockBegin
  2
*Paper_Space
 70
     0
 71
     0
 10
0.0
 20
0.0
 30
0.0
  3
*Paper_Space
  1

  0
ENDBLK
  5
1D
330
1B
100
AcDbEntity
 67
     1
  8
0
100
AcDbBlockEnd
  0
BLOCK
  5
32
330
2E
100
AcDbEntity
  8
0
100
AcDbBlockBegin
  2
SEANNOT_GROUP
 70
     0
 71
     0
 10
0.0
 20
0.0
 30
0.0
  3
SEANNOT_GROUP
  1

  0
LINE
  5
31
330
2E
100
AcDbEntity
  8
Default
  6
CENTER2
 62
   136
370
     9
100
AcDbLine
 10
1668.6102281089
 20
1100.4591135269
 30
0.0
 11
1572.6102281089
 21
1100.4591135269
 31
0.0
  0
ENDBLK
  5
33
330
2E
100
AcDbEntity
  8
0
100
AcDbBlockEnd
  0
BLOCK
  5
3C
330
34
100
AcDbEntity
  8
0
100
AcDbBlockBegin
  2
SEANNOT_GROUP1
 70
     0
 71
     0
 10
0.0
 20
0.0
 30
0.0
  3
SEANNOT_GROUP1
  1

  0
LINE
  5
36
330
34
100
AcDbEntity
  8
Default
  6
CENTER2
 62
   136
370
     9
100
AcDbLine
 10
723.4889944506
 20
1100.4591135269
 30
0.0
 11
611.4889909935
 21
1100.4591135269
 31
0.0
  0
LINE
  5
37
330
34
100
AcDbEntity
  8
Default
  6
CENTER2
 62
   136
370
     9
100
AcDbLine
 10
667.4889927221
 20
1156.4591152554
 30
0.0
 11
667.4889927221
 21
1044.4591117983
 31
0.0
  0
LINE
  5
38
330
34
100
AcDbEntity
  8
Default
  6
CENTER2
 62
   136
370
     9
100
AcDbLine
 10
737.4889948827
 20
1100.4591135269
 30
0.0
 11
720.4889927221
 21
1100.4591135269
 31
0.0
  0
LINE
  5
39
330
34
100
AcDbEntity
  8
Default
  6
CENTER2
 62
   136
370
     9
100
AcDbLine
 10
667.4889927221
 20
1170.4591156875
 30
0.0
 11
667.4889927221
 21
1153.4591135269
 31
0.0
  0
LINE
  5
3A
330
34
100
AcDbEntity
  8
Default
  6
CENTER2
 62
   136
370
     9
100
AcDbLine
 10
597.4889905614
 20
1100.4591135269
 30
0.0
 11
614.4889927221
 21
1100.4591135269
 31
0.0
  0
LINE
  5
3B
330
34
100
AcDbEntity
  8
Default
  6
CENTER2
 62
   136
370
     9
100
AcDbLine
 10
667.4889927221
 20
1030.4591113662
 30
0.0
 11
667.4889927221
 21
1047.4591135269
 31
0.0
  0
ENDBLK
  5
3D
330
34
100
AcDbEntity
  8
0
100
AcDbBlockEnd
  0
BLOCK
  5
41
330
3E
100
AcDbEntity
  8
0
100
AcDbBlockBegin
  2
SEANNOT_GROUP2
 70
     0
 71
     0
 10
0.0
 20
0.0
 30
0.0
  3
SEANNOT_GROUP2
  1

  0
LINE
  5
40
330
3E
100
AcDbEntity
  8
Default
  6
CENTER2
 62
   136
370
     9
100
AcDbLine
 10
1670.6102281089
 20
1300.4591135078
 30
0.0
 11
1574.6102281089
 21
1300.4591135347
 31
0.0
  0
ENDBLK
  5
42
330
3E
100
AcDbEntity
  8
0
100
AcDbBlockEnd
  0
BLOCK
  5
46
330
43
100
AcDbEntity
  8
0
100
AcDbBlockBegin
  2
SEANNOT_GROUP3
 70
     0
 71
     0
 10
0.0
 20
0.0
 30
0.0
  3
SEANNOT_GROUP3
  1

  0
LINE
  5
45
330
43
100
AcDbEntity
  8
Default
  6
CENTER2
 62
   136
370
     9
100
AcDbLine
 10
1670.6102281089
 20
900.4591135269
 30
0.0
 11
1574.6102281089
 21
900.4591135269
 31
0.0
  0
ENDBLK
  5
47
330
43
100
AcDbEntity
  8
0
100
AcDbBlockEnd
  0
BLOCK
  5
70
330
55
100
AcDbEntity
  8
0
100
AcDbBlockBegin
  2
SE
 70
     0
 71
     0
 10
0.0
 20
0.0
 30
0.0
  3
SE
  1

  0
INSERT
  5
58
330
55
100
AcDbEntity
  8
Default
100
AcDbBlockReference
  2
SE1
 10
0.0
 20
0.0
 30
0.0
  0
INSERT
  5
5D
330
55
100
AcDbEntity
  8
Default
100
AcDbBlockReference
  2
SE2
 10
0.0
 20
0.0
 30
0.0
  0
INSERT
  5
62
330
55
100
AcDbEntity
  8
Default
100
AcDbBlockReference
  2
SE3
 10
0.0
 20
0.0
 30
0.0
  0
INSERT
  5
68
330
55
100
AcDbEntity
  8
Default
100
AcDbBlockReference
  2
SE4
 10
0.0
 20
0.0
 30
0.0
  0
LINE
  5
6D
330
55
100
AcDbEntity
  8
Default
  6
CENTER2
 62
     7
100
AcDbLine
 10
667.4881918323
 20
1391.8369724817
 30
0.0
 11
667.4881918323
 21
1433.8369724817
 31
0.0
  0
LINE
  5
6E
330
55
100
AcDbEntity
  8
Default
  6
CENTER2
 62
     7
100
AcDbLine
 10
667.4881918323
 20
783.8534923725
 30
0.0
 11
667.4881918323
 21
741.8534923725
 31
0.0
  0
LWPOLYLINE
  5
6F
330
55
100
AcDbEntity
  8
Default
  6
CENTER2
 62
     7
100
AcDbPolyline
 90
        2
 70
     0
 43
0.00035
 10
667.4881918323
 20
1391.8369724817
 10
667.4881918323
 20
783.8534923725
  0
ENDBLK
  5
71
330
55
100
AcDbEntity
  8
0
100
AcDbBlockEnd
  0
BLOCK
  5
5A
330
57
100
AcDbEntity
  8
0
100
AcDbBlockBegin
  2
SE1
 70
     0
 71
     0
 10
0.0
 20
0.0
 30
0.0
  3
SE1
  1

  0
TEXT
  5
59
330
57
100
AcDbEntity
  8
0
  6
Continuous
 62
     7
100
AcDbText
 10
432.0336463778
 20
1363.8369724817
 30
0.0
 40
42.0
  1
A
  7
SEACAD_seiso_ttf
 11
432.0336463778
 21
1405.8369724817
 31
0.0
100
AcDbText
 73
     3
  0
ENDBLK
  5
5B
330
57
100
AcDbEntity
  8
0
100
AcDbBlockEnd
  0
BLOCK
  5
5F
330
5C
100
AcDbEntity
  8
0
100
AcDbBlockBegin
  2
SE2
 70
     0
 71
     0
 10
0.0
 20
0.0
 30
0.0
  3
SE2
  1

  0
TEXT
  5
5E
330
5C
100
AcDbEntity
  8
0
  6
Continuous
 62
     7
100
AcDbText
 10
432.0336463778
 20
755.8534923725
 30
0.0
 40
42.0
  1
A
  7
SEACAD_seiso_ttf
 11
432.0336463778
 21
797.8534923725
 31
0.0
100
AcDbText
 73
     3
  0
ENDBLK
  5
60
330
5C
100
AcDbEntity
  8
0
100
AcDbBlockEnd
  0
BLOCK
  5
65
330
61
100
AcDbEntity
  8
0
100
AcDbBlockBegin
  2
SE3
 70
     0
 71
     0
 10
0.0
 20
0.0
 30
0.0
  3
SE3
  1

  0
LWPOLYLINE
  5
63
330
61
100
AcDbEntity
  8
0
  6
Continuous
 62
     7
100
AcDbPolyline
 90
        2
 70
     0
 43
0.0
 10
499.4881918323
 20
1391.8369724817
 10
667.4881918323
 20
1391.8369724817
  0
LWPOLYLINE
  5
64
330
61
100
AcDbEntity
  8
0
  6
Continuous
 62
     7
100
AcDbPolyline
 90
        4
 70
     0
 43
0.0
 10
619.8881907356
 20
1383.9036389656
 10
619.8881907356
 20
1399.7703059978
 10
667.4881918323
 20
1391.8369724817
 10
619.8881907356
 20
1383.9036389656
  0
ENDBLK
  5
66
330
61
100
AcDbEntity
  8
0
100
AcDbBlockEnd
  0
BLOCK
  5
6B
330
67
100
AcDbEntity
  8
0
100
AcDbBlockBegin
  2
SE4
 70
     0
 71
     0
 10
0.0
 20
0.0
 30
0.0
  3
SE4
  1

  0
LWPOLYLINE
  5
69
330
67
100
AcDbEntity
  8
0
  6
Continuous
 62
     7
100
AcDbPolyline
 90
        2
 70
     0
 43
0.0
 10
499.4881918323
 20
783.8534923725
 10
667.4881918323
 20
783.8534923725
  0
LWPOLYLINE
  5
6A
330
67
100
AcDbEntity
  8
0
  6
Continuous
 62
     7
100
AcDbPolyline
 90
        4
 70
     0
 43
0.0
 10
619.8881907356
 20
775.9201588563
 10
619.8881907356
 20
791.7868258886
 10
667.4881918323
 20
783.8534923725
 10
619.8881907356
 20
775.9201588563
  0
ENDBLK
  5
6C
330
67
100
AcDbEntity
  8
0
100
AcDbBlockEnd
  0
BLOCK
  5
CE
330
C3
100
AcDbEntity
  8
0
100
AcDbBlockBegin
  2
GDimGGroup
 70
     0
 71
     0
 10
0.0
 20
0.0
 30
0.0
  3
GDimGGroup
  1

  0
LINE
  5
C5
330
C3
100
AcDbEntity
  8
Default
  6
Continuous
 62
   136
370
     9
100
AcDbLine
 10
635.3562318342
 20
1059.3212269092
 30
0.0
 11
682.8782463732
 21
1120.1611669558
 31
0.0
  0
LINE
  5
C6
330
C3
100
AcDbEntity
  8
Default
  6
Continuous
 62
   136
370
     9
100
AcDbLine
 10
682.8782459146
 20
1120.1611663686
 30
0.0
 11
719.0421927994
 21
1166.4599687587
 31
0.0
  0
HATCH
  5
C7
330
C3
100
AcDbEntity
  8
Default
  6
Continuous
 62
   136
370
     9
100
AcDbHatch
 10
0.0
 20
0.0
 30
0.0
210
0.0
220
0.0
230
1.0
  2
SOLID
 70
     1
 71
     0
 91
        1
 92
        1
 93
        3
 72
     1
 10
641.9416662005668
 20
1071.434436105118
 11
645.5143051632291
 21
1068.643851489218
 72
     1
 10
645.5143051632291
 20
1068.643851489218
 11
652.0997395295977
 21
1080.757060685155
 72
     1
 10
652.0997395295976
 20
1080.757060685155
 11
641.9416662005668
 21
1071.434436105118
 97
        0
 75
     0
 76
     1
 98
        0
  0
HATCH
  5
C8
330
C3
100
AcDbEntity
  8
Default
  6
Continuous
 62
   136
370
     9
100
AcDbHatch
 10
0.0
 20
0.0
 30
0.0
210
0.0
220
0.0
230
1.0
  2
SOLID
 70
     1
 71
     0
 91
        1
 92
        1
 93
        3
 72
     1
 10
689.4636802809296
 20
1132.27437556452
 11
682.8782459145609
 21
1120.161166368583
 72
     1
 10
682.8782459145609
 20
1120.161166368583
 11
693.0363192435917
 21
1129.48379094862
 72
     1
 10
693.0363192435917
 20
1129.48379094862
 11
689.4636802809295
 21
1132.27437556452
 97
        0
 75
     0
 76
     1
 98
        0
  0
LINE
  5
C9
330
C3
100
AcDbEntity
  8
Default
  6
Continuous
 62
   136
370
     9
100
AcDbLine
 10
719.0421932581
 20
1166.4599693459
 30
0.0
 11
783.1320801022
 21
1166.4599693459
 31
0.0
  0
TEXT
  5
CB
330
C3
100
AcDbEntity
  8
Default
  6
Continuous
 62
   136
370
     9
100
AcDbText
 10
724.6421932581
 20
1170.4599693459
 30
0.0
 40
16.0
  1
O
  7
SEACAD_semeca1_ttf
 11
724.6421932581
 21
1186.4599693459
 31
0.0
100
AcDbText
 73
     3
  0
TEXT
  5
CD
330
C3
100
AcDbEntity
  8
Default
  6
Continuous
 62
   136
370
     9
100
AcDbText
 10
752.4878072931
 20
1170.4599693459
 30
0.0
 40
16.0
  1
50
  7
SEACAD_arial_ttf
 11
752.4878072931
 21
1186.4599693459
 31
0.0
100
AcDbText
 73
     3
  0
ENDBLK
  5
CF
330
C3
100
AcDbEntity
  8
0
100
AcDbBlockEnd
  0
BLOCK
  5
D8
330
D0
100
AcDbEntity
  8
0
100
AcDbBlockBegin
  2
GDimGGroup1
 70
     0
 71
     0
 10
0.0
 20
0.0
 30
0.0
  3
GDimGGroup1
  1

  0
HATCH
  5
D2
330
D0
100
AcDbEntity
  8
Default
  6
Continuous
 62
   136
370
     9
100
AcDbHatch
 10
0.0
 20
0.0
 30
0.0
210
0.0
220
0.0
230
1.0
  2
SOLID
 70
     1
 71
     0
 91
        1
 92
        1
 93
        3
 72
     1
 10
408.5889929023833
 20
1469.969934438445
 11
394.9889927220792
 21
1467.703267741728
 72
     1
 10
394.9889927220792
 20
1467.703267741728
 11
408.5889929023833
 21
1465.436601045011
 72
     1
 10
408.5889929023833
 20
1465.436601045011
 11
408.5889929023833
 21
1469.969934438445
 97
        0
 75
     0
 76
     1
 98
        0
  0
HATCH
  5
D3
330
D0
100
AcDbEntity
  8
Default
  6
Continuous
 62
   136
370
     9
100
AcDbHatch
 10
0.0
 20
0.0
 30
0.0
210
0.0
220
0.0
230
1.0
  2
SOLID
 70
     1
 71
     0
 91
        1
 92
        1
 93
        3
 72
     1
 10
926.3890092310756
 20
1469.969934438445
 11
926.3890092310756
 21
1465.436601045011
 72
     1
 10
926.3890092310756
 20
1465.436601045011
 11
939.9890094113797
 21
1467.703267741728
 72
     1
 10
939.9890094113797
 20
1467.703267741728
 11
926.3890092310756
 21
1469.969934438445
 97
        0
 75
     0
 76
     1
 98
        0
  0
LINE
  5
D4
330
D0
100
AcDbEntity
  8
Default
  6
Continuous
 62
   136
370
     9
100
AcDbLine
 10
394.9889927221
 20
1108.4591139068
 30
0.0
 11
394.9889927221
 21
1475.7032681217
 31
0.0
  0
LINE
  5
D5
330
D0
100
AcDbEntity
  8
Default
  6
Continuous
 62
   136
370
     9
100
AcDbLine
 10
939.9889927221
 20
1108.4591139068
 30
0.0
 11
939.9889927221
 21
1475.7032681217
 31
0.0
  0
LINE
  5
D6
330
D0
100
AcDbEntity
  8
Default
  6
Continuous
 62
   136
370
     9
100
AcDbLine
 10
394.9889927221
 20
1467.7032677417
 30
0.0
 11
939.9890094114
 21
1467.7032677417
 31
0.0
  0
TEXT
  5
D7
330
D0
100
AcDbEntity
  8
Default
  6
Continuous
 62
   136
370
     9
100
AcDbText
 10
648.7063923711
 20
1471.7032677417
 30
0.0
 40
16.0
  1
545
  7
SEACAD_arial_ttf
 11
648.7063923711
 21
1487.7032677417
 31
0.0
100
AcDbText
 73
     3
  0
ENDBLK
  5
D9
330
D0
100
AcDbEntity
  8
0
100
AcDbBlockEnd
  0
BLOCK
  5
E2
330
DA
100
AcDbEntity
  8
0
100
AcDbBlockBegin
  2
GDimGGroup2
 70
     0
 71
     0
 10
0.0
 20
0.0
 30
0.0
  3
GDimGGroup2
  1

  0
HATCH
  5
DC
330
DA
100
AcDbEntity
  8
Default
  6
Continuous
 62
   136
370
     9
100
AcDbHatch
 10
0.0
 20
0.0
 30
0.0
210
0.0
220
0.0
230
1.0
  2
SOLID
 70
     1
 71
     0
 91
        1
 92
        1
 93
        3
 72
     1
 10
302.6165158599567
 20
1311.859113346565
 11
307.1498492533913
 21
1311.859113346565
 72
     1
 10
307.1498492533913
 20
1311.859113346565
 11
304.883182556674
 21
1325.459113526869
 72
     1
 10
304.883182556674
 20
1325.459113526869
 11
302.6165158599567
 21
1311.859113346565
 97
        0
 75
     0
 76
     1
 98
        0
  0
HATCH
  5
DD
330
DA
100
AcDbEntity
  8
Default
  6
Continuous
 62
   136
370
     9
100
AcDbHatch
 10
0.0
 20
0.0
 30
0.0
210
0.0
220
0.0
230
1.0
  2
SOLID
 70
     1
 71
     0
 91
        1
 92
        1
 93
        3
 72
     1
 10
302.6165158599567
 20
1114.059119667638
 11
304.883182556674
 21
1100.459119487334
 72
     1
 10
304.883182556674
 20
1100.459119487334
 11
307.1498492533913
 21
1114.059119667638
 72
     1
 10
307.1498492533913
 20
1114.059119667638
 11
302.6165158599567
 21
1114.059119667638
 97
        0
 75
     0
 76
     1
 98
        0
  0
LINE
  5
DE
330
DA
100
AcDbEntity
  8
Default
  6
Continuous
 62
   136
370
     9
100
AcDbLine
 10
659.4889923421
 20
1325.4591135269
 30
0.0
 11
296.8831821767
 21
1325.4591135269
 31
0.0
  0
LINE
  5
DF
330
DA
100
AcDbEntity
  8
Default
  6
Continuous
 62
   136
370
     9
100
AcDbLine
 10
606.4889920366
 20
1100.4591135269
 30
0.0
 11
296.8831821767
 21
1100.4591135269
 31
0.0
  0
LINE
  5
E0
330
DA
100
AcDbEntity
  8
Default
  6
Continuous
 62
   136
370
     9
100
AcDbLine
 10
304.8831825567
 20
1325.4591135269
 30
0.0
 11
304.8831825567
 21
1100.4591194873
 31
0.0
  0
TEXT
  5
E1
330
DA
100
AcDbEntity
  8
Default
  6
Continuous
 62
   136
370
     9
100
AcDbText
 10
300.8831825567
 20
1194.1765078114
 30
0.0
 40
16.0
  1
225
 50
90.0
  7
SEACAD_arial_ttf
 11
284.8831825567
 21
1194.1765078114
 31
0.0
100
AcDbText
 73
     3
  0
ENDBLK
  5
E3
330
DA
100
AcDbEntity
  8
0
100
AcDbBlockEnd
  0
BLOCK
  5
EC
330
E4
100
AcDbEntity
  8
0
100
AcDbBlockBegin
  2
GDimGGroup3
 70
     0
 71
     0
 10
0.0
 20
0.0
 30
0.0
  3
GDimGGroup3
  1

  0
HATCH
  5
E6
330
E4
100
AcDbEntity
  8
Default
  6
Continuous
 62
   136
370
     9
100
AcDbHatch
 10
0.0
 20
0.0
 30
0.0
210
0.0
220
0.0
230
1.0
  2
SOLID
 70
     1
 71
     0
 91
        1
 92
        1
 93
        3
 72
     1
 10
254.6165079921436
 20
1311.859113346565
 11
259.1498413855782
 21
1311.859113346565
 72
     1
 10
259.1498413855782
 20
1311.859113346565
 11
256.8831746888609
 21
1325.459113526869
 72
     1
 10
256.8831746888609
 20
1325.459113526869
 11
254.6165079921436
 21
1311.859113346565
 97
        0
 75
     0
 76
     1
 98
        0
  0
HATCH
  5
E7
330
E4
100
AcDbEntity
  8
Default
  6
Continuous
 62
   136
370
     9
100
AcDbHatch
 10
0.0
 20
0.0
 30
0.0
210
0.0
220
0.0
230
1.0
  2
SOLID
 70
     1
 71
     0
 91
        1
 92
        1
 93
        3
 72
     1
 10
254.6165079921436
 20
889.0591256281019
 11
256.8831746888609
 21
875.4591254477979
 72
     1
 10
256.8831746888609
 20
875.4591254477979
 11
259.1498413855782
 21
889.0591256281019
 72
     1
 10
259.1498413855782
 20
889.0591256281019
 11
254.6165079921436
 21
889.0591256281019
 97
        0
 75
     0
 76
     1
 98
        0
  0
LINE
  5
E8
330
E4
100
AcDbEntity
  8
Default
  6
Continuous
 62
   136
370
     9
100
AcDbLine
 10
659.4889923421
 20
1325.4591135269
 30
0.0
 11
248.8831743089
 21
1325.4591135269
 31
0.0
  0
LINE
  5
E9
330
E4
100
AcDbEntity
  8
Default
  6
Continuous
 62
   136
370
     9
100
AcDbLine
 10
659.4889923421
 20
875.4591135269
 30
0.0
 11
248.8831743089
 21
875.4591135269
 31
0.0
  0
LINE
  5
EA
330
E4
100
AcDbEntity
  8
Default
  6
Continuous
 62
   136
370
     9
100
AcDbLine
 10
256.8831746889
 20
1325.4591135269
 30
0.0
 11
256.8831746889
 21
875.4591254478
 31
0.0
  0
TEXT
  5
EB
330
E4
100
AcDbEntity
  8
Default
  6
Continuous
 62
   136
370
     9
100
AcDbText
 10
252.8831746889
 20
1081.6765107917
 30
0.0
 40
16.0
  1
450
 50
90.0
  7
SEACAD_arial_ttf
 11
236.8831746889
 21
1081.6765107917
 31
0.0
100
AcDbText
 73
     3
  0
ENDBLK
  5
ED
330
E4
100
AcDbEntity
  8
0
100
AcDbBlockEnd
  0
BLOCK
  5
F6
330
EE
100
AcDbEntity
  8
0
100
AcDbBlockBegin
  2
GDimGGroup4
 70
     0
 71
     0
 10
0.0
 20
0.0
 30
0.0
  3
GDimGGroup4
  1

  0
HATCH
  5
F0
330
EE
100
AcDbEntity
  8
Default
  6
Continuous
 62
   136
370
     9
100
AcDbHatch
 10
0.0
 20
0.0
 30
0.0
210
0.0
220
0.0
230
1.0
  2
SOLID
 70
     1
 71
     0
 91
        1
 92
        1
 93
        3
 72
     1
 10
1616.210228289155
 20
1520.165274106443
 11
1602.610228108851
 21
1517.898607409725
 72
     1
 10
1602.610228108851
 20
1517.898607409725
 11
1616.210228289155
 21
1515.631940713008
 72
     1
 10
1616.210228289155
 20
1515.631940713008
 11
1616.210228289155
 21
1520.165274106443
 97
        0
 75
     0
 76
     1
 98
        0
  0
HATCH
  5
F1
330
EE
100
AcDbEntity
  8
Default
  6
Continuous
 62
   136
370
     9
100
AcDbHatch
 10
0.0
 20
0.0
 30
0.0
210
0.0
220
0.0
230
1.0
  2
SOLID
 70
     1
 71
     0
 91
        1
 92
        1
 93
        3
 72
     1
 10
1642.010227302698
 20
1520.165274106443
 11
1642.010227302698
 21
1515.631940713008
 72
     1
 10
1642.010227302698
 20
1515.631940713008
 11
1655.610227483003
 21
1517.898607409725
 72
     1
 10
1655.610227483003
 20
1517.898607409725
 11
1642.010227302698
 21
1520.165274106443
 97
        0
 75
     0
 76
     1
 98
        0
  0
LINE
  5
F2
330
EE
100
AcDbEntity
  8
Default
  6
Continuous
 62
   136
370
     9
100
AcDbLine
 10
1602.6102281089
 20
1318.2091138951
 30
0.0
 11
1602.6102281089
 21
1525.8986077897
 31
0.0
  0
LINE
  5
F3
330
EE
100
AcDbEntity
  8
Default
  6
Continuous
 62
   136
370
     9
100
AcDbLine
 10
1655.6102281089
 20
1292.0630358513
 30
0.0
 11
1655.6102281089
 21
1525.8986077897
 31
0.0
  0
LINE
  5
F4
330
EE
100
AcDbEntity
  8
Default
  6
Continuous
 62
   136
370
     9
100
AcDbLine
 10
1602.6102281089
 20
1517.8986074097
 30
0.0
 11
1655.610227483
 21
1517.8986074097
 31
0.0
  0
TEXT
  5
F5
330
EE
100
AcDbEntity
  8
Default
  6
Continuous
 62
   136
370
     9
100
AcDbText
 10
1616.5884886655
 20
1521.8986074097
 30
0.0
 40
16.0
  1
53
  7
SEACAD_arial_ttf
 11
1616.5884886655
 21
1537.8986074097
 31
0.0
100
AcDbText
 73
     3
  0
ENDBLK
  5
F7
330
EE
100
AcDbEntity
  8
0
100
AcDbBlockEnd
  0
BLOCK
  5
100
330
F8
100
AcDbEntity
  8
0
100
AcDbBlockBegin
  2
GDimGGroup5
 70
     0
 71
     0
 10
0.0
 20
0.0
 30
0.0
  3
GDimGGroup5
  1

  0
HATCH
  5
FA
330
F8
100
AcDbEntity
  8
Default
  6
Continuous
 62
   136
370
     9
100
AcDbHatch
 10
0.0
 20
0.0
 30
0.0
210
0.0
220
0.0
230
1.0
  2
SOLID
 70
     1
 71
     0
 91
        1
 92
        1
 93
        3
 72
     1
 10
1616.210228289155
 20
1568.165281974256
 11
1602.610228108851
 21
1565.898615277539
 72
     1
 10
1602.610228108851
 20
1565.898615277539
 11
1616.210228289155
 21
1563.631948580821
 72
     1
 10
1616.210228289155
 20
1563.631948580821
 11
1616.210228289155
 21
1568.165281974256
 97
        0
 75
     0
 76
     1
 98
        0
  0
HATCH
  5
FB
330
F8
100
AcDbEntity
  8
Default
  6
Continuous
 62
   136
370
     9
100
AcDbHatch
 10
0.0
 20
0.0
 30
0.0
210
0.0
220
0.0
230
1.0
  2
SOLID
 70
     1
 71
     0
 91
        1
 92
        1
 93
        3
 72
     1
 10
1717.010234008221
 20
1568.165281974256
 11
1717.010234008221
 21
1563.631948580821
 72
     1
 10
1717.010234008221
 20
1563.631948580821
 11
1730.610234188525
 21
1565.898615277539
 72
     1
 10
1730.610234188525
 20
1565.898615277539
 11
1717.010234008221
 21
1568.165281974256
 97
        0
 75
     0
 76
     1
 98
        0
  0
LINE
  5
FC
330
F8
100
AcDbEntity
  8
Default
  6
Continuous
 62
   136
370
     9
100
AcDbLine
 10
1602.6102281089
 20
1318.2091138951
 30
0.0
 11
1602.6102281089
 21
1573.8986156575
 31
0.0
  0
LINE
  5
FD
330
F8
100
AcDbEntity
  8
Default
  6
Continuous
 62
   136
370
     9
100
AcDbLine
 10
1730.6102281089
 20
1327.5581334194
 30
0.0
 11
1730.6102281089
 21
1573.8986156575
 31
0.0
  0
LINE
  5
FE
330
F8
100
AcDbEntity
  8
Default
  6
Continuous
 62
   136
370
     9
100
AcDbLine
 10
1602.6102281089
 20
1565.8986152775
 30
0.0
 11
1730.6102341885
 21
1565.8986152775
 31
0.0
  0
TEXT
  5
FF
330
F8
100
AcDbEntity
  8
Default
  6
Continuous
 62
   136
370
     9
100
AcDbText
 10
1647.827622453
 20
1569.8986152775
 30
0.0
 40
16.0
  1
128
  7
SEACAD_arial_ttf
 11
1647.827622453
 21
1585.8986152775
 31
0.0
100
AcDbText
 73
     3
  0
ENDBLK
  5
101
330
F8
100
AcDbEntity
  8
0
100
AcDbBlockEnd
  0
BLOCK
  5
10A
330
102
100
AcDbEntity
  8
0
100
AcDbBlockBegin
  2
GDimGGroup6
 70
     0
 71
     0
 10
0.0
 20
0.0
 30
0.0
  3
GDimGGroup6
  1

  0
HATCH
  5
104
330
102
100
AcDbEntity
  8
Default
  6
Continuous
 62
   136
370
     9
100
AcDbHatch
 10
0.0
 20
0.0
 30
0.0
210
0.0
220
0.0
230
1.0
  2
SOLID
 70
     1
 71
     0
 91
        1
 92
        1
 93
        3
 72
     1
 10
1849.044606719154
 20
1339.059113706198
 11
1844.51127332572
 21
1339.059113706198
 72
     1
 10
1844.51127332572
 20
1339.059113706198
 11
1846.777940022437
 21
1325.459113525894
 72
     1
 10
1846.777940022437
 20
1325.459113525894
 11
1849.044606719154
 21
1339.059113706198
 97
        0
 75
     0
 76
     1
 98
        0
  0
HATCH
  5
105
330
102
100
AcDbEntity
  8
Default
  6
Continuous
 62
   136
370
     9
100
AcDbHatch
 10
0.0
 20
0.0
 30
0.0
210
0.0
220
0.0
230
1.0
  2
SOLID
 70
     1
 71
     0
 91
        1
 92
        1
 93
        3
 72
     1
 10
1849.044606719154
 20
1301.055229480696
 11
1846.777940022437
 21
1314.655229661
 72
     1
 10
1846.777940022437
 20
1314.655229661
 11
1844.51127332572
 21
1301.055229480696
 72
     1
 10
1844.51127332572
 20
1301.055229480696
 11
1849.044606719154
 21
1301.055229480696
 97
        0
 75
     0
 76
     1
 98
        0
  0
LINE
  5
106
330
102
100
AcDbEntity
  8
Default
  6
Continuous
 62
   136
370
     9
100
AcDbLine
 10
1733.6102284888
 20
1325.4591135259
 30
0.0
 11
1854.7779404024
 21
1325.4591135259
 31
0.0
  0
LINE
  5
107
330
102
100
AcDbEntity
  8
Default
  6
Continuous
 62
   136
370
     9
100
AcDbLine
 10
1734.5908091645
 20
1314.655229661
 30
0.0
 11
1854.7779404024
 21
1314.655229661
 31
0.0
  0
LINE
  5
108
330
102
100
AcDbEntity
  8
Default
  6
Continuous
 62
   136
370
     9
100
AcDbLine
 10
1846.7779400224
 20
1391.6922045822
 30
0.0
 11
1846.7779400224
 21
1287.45522927
 31
0.0
  0
TEXT
  5
109
330
102
100
AcDbEntity
  8
Default
  6
Continuous
 62
   136
370
     9
100
AcDbText
 10
1842.7779400224
 20
1361.0487248833
 30
0.0
 40
16.0
  1
11
 50
90.0
  7
SEACAD_arial_ttf
 11
1826.7779400224
 21
1361.0487248833
 31
0.0
100
AcDbText
 73
     3
  0
ENDBLK
  5
10B
330
102
100
AcDbEntity
  8
0
100
AcDbBlockEnd
  0
BLOCK
  5
12E
330
12B
100
AcDbEntity
  8
0
100
AcDbBlockBegin
  2
SEANNOT_GROUP4
 70
     0
 71
     0
 10
0.0
 20
0.0
 30
0.0
  3
SEANNOT_GROUP4
  1

  0
TEXT
  5
12D
330
12B
100
AcDbEntity
  8
Default
  6
Continuous
 62
     7
370
     0
100
AcDbText
 10
1513.4713692233
 20
137.8046408992
 30
0.0
 40
24.0
  1
04/11/08
  7
SEACAD_arial_ttf
 11
1513.4713692233
 21
161.8046408992
 31
0.0
100
AcDbText
 73
     3
  0
ENDBLK
  5
12F
330
12B
100
AcDbEntity
  8
0
100
AcDbBlockEnd
  0
BLOCK
  5
13E
330
13A
100
AcDbEntity
  8
0
100
AcDbBlockBegin
  2
SEANNOT_GROUP5
 70
     0
 71
     0
 10
0.0
 20
0.0
 30
0.0
  3
SEANNOT_GROUP5
  1

  0
TEXT
  5
13D
330
13A
100
AcDbEntity
  8
Default
  6
Continuous
 62
     7
370
     0
100
AcDbText
 10
2196.2207174568
 20
71.728887387
 30
0.0
 40
32.0
  1
1 / 1
  7
SEACAD_seiso_ttfB
 11
2196.2207174568
 21
103.728887387
 31
0.0
100
AcDbText
 73
     3
  0
ENDBLK
  5
13F
330
13A
100
AcDbEntity
  8
0
100
AcDbBlockEnd
  0
BLOCK
  5
147
330
143
100
AcDbEntity
  8
0
100
AcDbBlockBegin
  2
SEANNOT_GROUP6
 70
     0
 71
     0
 10
0.0
 20
0.0
 30
0.0
  3
SEANNOT_GROUP6
  1

  0
LINE
  5
145
330
143
100
AcDbEntity
  8
Predefinito
  6
CENTER2
 62
   136
370
     9
100
AcDbLine
 10
2179.406079177
 20
225.1057846513
 30
0.0
 11
2109.406078879
 21
225.1057846513
 31
0.0
  0
LINE
  5
146
330
143
100
AcDbEntity
  8
Predefinito
  6
CENTER2
 62
   136
370
     9
100
AcDbLine
 10
2144.406079028
 20
260.1057848004
 30
0.0
 11
2144.406079028
 21
190.1057845023
 31
0.0
  0
ENDBLK
  5
148
330
143
100
AcDbEntity
  8
0
100
AcDbBlockEnd
  0
BLOCK
  5
150
330
14D
100
AcDbEntity
  8
0
100
AcDbBlockBegin
  2
SEANNOT_GROUP7
 70
     0
 71
     0
 10
0.0
 20
0.0
 30
0.0
  3
SEANNOT_GROUP7
  1

  0
LINE
  5
14F
330
14D
100
AcDbEntity
  8
Predefinito
  6
CENTER2
 62
   136
370
     9
100
AcDbLine
 10
2116.6588384705
 20
225.1057846513
 30
0.0
 11
2041.3654380774
 21
225.1057846513
 31
0.0
  0
ENDBLK
  5
151
330
14D
100
AcDbEntity
  8
0
100
AcDbBlockEnd
  0
BLOCK
  5
169
330
166
100
AcDbEntity
  8
0
100
AcDbBlockBegin
  2
SEANNOT_GROUP8
 70
     0
 71
     0
 10
0.0
 20
0.0
 30
0.0
  3
SEANNOT_GROUP8
  1

  0
TEXT
  5
168
330
166
100
AcDbEntity
  8
Predefinito
  6
Continuous
 62
     7
370
     0
100
AcDbText
 10
1646.0194403854
 20
71.4788316526
 30
0.0
 40
38.0
  1
Wind 54x45 cm
  7
SEACAD_arial_ttf
 11
1646.0194403854
 21
109.4788316526
 31
0.0
100
AcDbText
 73
     3
  0
ENDBLK
  5
16A
330
166
100
AcDbEntity
  8
0
100
AcDbBlockEnd
  0
BLOCK
  5
16D
330
16B
100
AcDbEntity
  8
0
100
AcDbBlockBegin
  2
SEANNOT_GROUP9
 70
     0
 71
     0
 10
0.0
 20
0.0
 30
0.0
  3
SEANNOT_GROUP9
  1

  0
ENDBLK
  5
16E
330
16B
100
AcDbEntity
  8
0
100
AcDbBlockEnd
  0
BLOCK
  5
174
330
171
100
AcDbEntity
  8
0
100
AcDbBlockBegin
  2
SEANNOT_GROUP10
 70
     0
 71
     0
 10
0.0
 20
0.0
 30
0.0
  3
SEANNOT_GROUP10
  1

  0
TEXT
  5
173
330
171
100
AcDbEntity
  8
Predefinito
  6
Continuous
 62
     7
370
     0
100
AcDbText
 10
1643.3909630789
 20
137.7709522727
 30
0.0
 40
24.0
  1
DESYS
  7
SEACAD_arial_ttf
 11
1643.3909630789
 21
161.7709522727
 31
0.0
100
AcDbText
 73
     3
  0
ENDBLK
  5
175
330
171
100
AcDbEntity
  8
0
100
AcDbBlockEnd
  0
BLOCK
  5
179
330
177
100
AcDbEntity
  8
0
100
AcDbBlockBegin
  2
SEANNOT_GROUP11
 70
     0
 71
     0
 10
0.0
 20
0.0
 30
0.0
  3
SEANNOT_GROUP11
  1

  0
ENDBLK
  5
17A
330
177
100
AcDbEntity
  8
0
100
AcDbBlockEnd
  0
BLOCK
  5
17F
330
17C
100
AcDbEntity
  8
0
100
AcDbBlockBegin
  2
SEANNOT_GROUP12
 70
     0
 71
     0
 10
0.0
 20
0.0
 30
0.0
  3
SEANNOT_GROUP12
  1

  0
TEXT
  5
17E
330
17C
100
AcDbEntity
  8
Predefinito
  6
Continuous
 62
     7
370
     0
100
AcDbText
 10
1931.9481016641
 20
135.926799644
 30
0.0
 40
48.0
  1
8030
  7
SEACAD_arial_ttf
 11
1931.9481016641
 21
183.926799644
 31
0.0
100
AcDbText
 73
     3
  0
ENDBLK
  5
180
330
17C
100
AcDbEntity
  8
0
100
AcDbBlockEnd
  0
BLOCK
  5
185
330
182
100
AcDbEntity
  8
0
100
AcDbBlockBegin
  2
SEANNOT_GROUP13
 70
     0
 71
     0
 10
0.0
 20
0.0
 30
0.0
  3
SEANNOT_GROUP13
  1

  0
TEXT
  5
184
330
182
100
AcDbEntity
  8
Predefinito
  6
Continuous
 62
     7
370
     0
100
AcDbText
 10
2218.2664727054
 20
132.7427435071
 30
0.0
 40
52.0
  1
0
  7
SEACAD_arial_ttf
 11
2218.2664727054
 21
184.7427435071
 31
0.0
100
AcDbText
 73
     3
  0
ENDBLK
  5
186
330
182
100
AcDbEntity
  8
0
100
AcDbBlockEnd
  0
ENDSEC
  0
SECTION
  2
ENTITIES
  0
TEXT
  5
2B
330
1F
100
AcDbEntity
  8
Default
  6
Continuous
 62
     7
100
AcDbText
 10
1789.5876400532
 20
513.6811604639
 30
0.0
 40
40.0
  1
Tolleranza    ± 5%
  7
SEACAD_seiso_ttf
 11
1789.5876400532
 21
553.6811604639
 31
0.0
100
AcDbText
 73
     3
  0
TEXT
  5
2D
330
1F
100
AcDbEntity
  8
Default
  6
Continuous
 62
     7
100
AcDbText
 10
1789.5876400532
 20
448.2266150094
 30
0.0
 40
40.0
  1
Tolerance     ± 5%
  7
SEACAD_seiso_ttf
 11
1789.5876400532
 21
488.2266150094
 31
0.0
100
AcDbText
 73
     3
  0
INSERT
  5
2F
330
1F
100
AcDbEntity
  8
Default
100
AcDbBlockReference
  2
SEANNOT_GROUP
 10
0.0
 20
0.0
 30
0.0
  0
INSERT
  5
35
330
1F
100
AcDbEntity
  8
Default
100
AcDbBlockReference
  2
SEANNOT_GROUP1
 10
0.0
 20
0.0
 30
0.0
  0
INSERT
  5
3F
330
1F
100
AcDbEntity
  8
Default
100
AcDbBlockReference
  2
SEANNOT_GROUP2
 10
0.0
 20
0.0
 30
0.0
  0
INSERT
  5
44
330
1F
100
AcDbEntity
  8
Default
100
AcDbBlockReference
  2
SEANNOT_GROUP3
 10
0.0
 20
0.0
 30
0.0
  0
CIRCLE
  5
4A
330
1F
100
AcDbEntity
  8
WIND
  6
HIDDEN2
 62
     7
100
AcDbCircle
 10
667.4889927221
 20
1100.4591135269
 30
0.0
 40
35.0
  0
SPLINE
  5
4B
330
1F
100
AcDbEntity
  8
WIND
  6
Continuous
 62
     7
100
AcDbSpline
210
0.0
220
0.0
230
1.0
 70
    11
 71
     3
 72
    94
 73
    90
 74
     0
 42
0.000000000006377
 43
0.0000000001
 40
0.0
 40
0.0
 40
0.0
 40
0.0
 40
0.015625
 40
0.015625
 40
0.03125
 40
0.03125
 40
0.046875
 40
0.046875
 40
0.0625
 40
0.0625
 40
0.078125
 40
0.078125
 40
0.09375
 40
0.09375
 40
0.125
 40
0.125
 40
0.15625
 40
0.15625
 40
0.1875
 40
0.1875
 40
0.21875
 40
0.21875
 40
0.25
 40
0.25
 40
0.28125
 40
0.28125
 40
0.3125
 40
0.3125
 40
0.34375
 40
0.34375
 40
0.375
 40
0.375
 40
0.40625
 40
0.40625
 40
0.421875
 40
0.421875
 40
0.4375
 40
0.4375
 40
0.453125
 40
0.453125
 40
0.46875
 40
0.46875
 40
0.484375
 40
0.484375
 40
0.5
 40
0.5
 40
0.515625
 40
0.515625
 40
0.53125
 40
0.53125
 40
0.546875
 40
0.546875
 40
0.5625
 40
0.5625
 40
0.578125
 40
0.578125
 40
0.59375
 40
0.59375
 40
0.625
 40
0.625
 40
0.65625
 40
0.65625
 40
0.6875
 40
0.6875
 40
0.71875
 40
0.71875
 40
0.75
 40
0.75
 40
0.78125
 40
0.78125
 40
0.8125
 40
0.8125
 40
0.84375
 40
0.84375
 40
0.875
 40
0.875
 40
0.90625
 40
0.90625
 40
0.921875
 40
0.921875
 40
0.9375
 40
0.9375
 40
0.953125
 40
0.953125
 40
0.96875
 40
0.96875
 40
0.984375
 40
0.984375
 40
1.0
 40
1.0
 40
1.0
 40
1.0
 10
394.9889927220792
 20
1100.459113526869
 30
0.0
 10
394.9889927220792
 20
1107.82222130872
 30
0.0
 10
395.4270827729058
 20
1115.185317695681
 30
0.0
 10
397.1752266349053
 20
1129.84062250636
 30
0.0
 10
398.4852777407113
 20
1137.132808250036
 30
0.0
 10
401.9647298836866
 20
1151.57606371096
 30
0.0
 10
404.1341255361762
 20
1158.727111076326
 30
0.0
 10
409.3113769339284
 20
1172.81922074192
 30
0.0
 10
412.319224667056
 20
1179.760261233688
 30
0.0
 10
419.1444155584512
 20
1193.365510384341
 30
0.0
 10
422.9617481542899
 20
1200.029697988215
 30
0.0
 10
431.3691482200152
 20
1213.017060637222
 30
0.0
 10
435.9592026789005
 20
1219.340215583562
 30
0.0
 10
450.8221647511055
 20
1237.706816701714
 30
0.0
 10
462.1910865086601
 20
1249.145132407534
 30
0.0
 10
487.41370318883
 20
1269.971146180151
 30
0.0
 10
501.2667744325441
 20
1279.358329282719
 30
0.0
 10
530.9254340159314
 20
1295.721223307165
 30
0.0
 10
546.7302889868007
 20
1302.696529624243
 30
0.0
 10
579.6852258183837
 20
1313.967487059574
 30
0.0
 10
596.8344928033432
 20
1318.262859481194
 30
0.0
 10
631.8192671420259
 20
1324.008743753998
 30
0.0
 10
649.6539094282623
 20
1325.459113526869
 30
0.0
 10
685.3240760158964
 20
1325.459113526869
 30
0.0
 10
703.1587183021327
 20
1324.008743753998
 30
0.0
 10
738.1434926408155
 20
1318.262859481194
 30
0.0
 10
755.2927596257748
 20
1313.967487059574
 30
0.0
 10
788.247696457358
 20
1302.696529624243
 30
0.0
 10
804.0525514282272
 20
1295.721223307165
 30
0.0
 10
833.7112110116145
 20
1279.358329282719
 30
0.0
 10
847.5642822553286
 20
1269.971146180151
 30
0.0
 10
872.7868989354986
 20
1249.145132407533
 30
0.0
 10
884.155820693053
 20
1237.706816701714
 30
0.0
 10
899.0187827652579
 20
1219.340215583562
 30
0.0
 10
903.6088372241434
 20
1213.017060637222
 30
0.0
 10
912.0162372898687
 20
1200.029697988215
 30
0.0
 10
915.8335698857073
 20
1193.365510384341
 30
0.0
 10
922.6587607771024
 20
1179.760261233688
 30
0.0
 10
925.66660851023
 20
1172.81922074192
 30
0.0
 10
930.8438599079823
 20
1158.727111076326
 30
0.0
 10
933.013255560472
 20
1151.57606371096
 30
0.0
 10
936.4927077034472
 20
1137.132808250036
 30
0.0
 10
937.8027588092532
 20
1129.84062250636
 30
0.0
 10
939.5509026712527
 20
1115.185317695681
 30
0.0
 10
939.9889927220793
 20
1107.82222130872
 30
0.0
 10
939.9889927220793
 20
1093.096005745018
 30
0.0
 10
939.5509026712526
 20
1085.732909358057
 30
0.0
 10
937.8027588092531
 20
1071.077604547379
 30
0.0
 10
936.4927077034472
 20
1063.785418803702
 30
0.0
 10
933.0132555604719
 20
1049.342163342778
 30
0.0
 10
930.8438599079823
 20
1042.191115977412
 30
0.0
 10
925.66660851023
 20
1028.099006311818
 30
0.0
 10
922.6587607771025
 20
1021.157965820051
 30
0.0
 10
915.8335698857073
 20
1007.552716669397
 30
0.0
 10
912.0162372898686
 20
1000.888529065523
 30
0.0
 10
903.6088372241433
 20
987.9011664165162
 30
0.0
 10
899.0187827652577
 20
981.578011470176
 30
0.0
 10
884.1558206930528
 20
963.2114103520233
 30
0.0
 10
872.7868989354984
 20
951.7730946462044
 30
0.0
 10
847.5642822553284
 20
930.9470808735871
 30
0.0
 10
833.7112110116145
 20
921.5598977710192
 30
0.0
 10
804.052551428227
 20
905.1970037465734
 30
0.0
 10
788.2476964573576
 20
898.2216974294952
 30
0.0
 10
755.2927596257745
 20
886.9507399941638
 30
0.0
 10
738.1434926408155
 20
882.6553675725437
 30
0.0
 10
703.1587183021328
 20
876.9094832997406
 30
0.0
 10
685.3240760158963
 20
875.459113526869
 30
0.0
 10
649.6539094282622
 20
875.459113526869
 30
0.0
 10
631.8192671420255
 20
876.9094832997406
 30
0.0
 10
596.8344928033429
 20
882.6553675725437
 30
0.0
 10
579.6852258183837
 20
886.9507399941639
 30
0.0
 10
546.7302889868007
 20
898.2216974294952
 30
0.0
 10
530.9254340159313
 20
905.1970037465735
 30
0.0
 10
501.2667744325439
 20
921.5598977710193
 30
0.0
 10
487.4137031888299
 20
930.9470808735871
 30
0.0
 10
462.19108650866
 20
951.7730946462045
 30
0.0
 10
450.8221647511056
 20
963.2114103520234
 30
0.0
 10
435.9592026789006
 20
981.5780114701761
 30
0.0
 10
431.3691482200151
 20
987.9011664165163
 30
0.0
 10
422.9617481542899
 20
1000.888529065523
 30
0.0
 10
419.1444155584512
 20
1007.552716669397
 30
0.0
 10
412.3192246670559
 20
1021.157965820051
 30
0.0
 10
409.3113769339284
 20
1028.099006311818
 30
0.0
 10
404.1341255361762
 20
1042.191115977412
 30
0.0
 10
401.9647298836866
 20
1049.342163342778
 30
0.0
 10
398.4852777407113
 20
1063.785418803702
 30
0.0
 10
397.1752266349053
 20
1071.077604547379
 30
0.0
 10
395.4270827729058
 20
1085.732909358057
 30
0.0
 10
394.9889927220792
 20
1093.096005745018
 30
0.0
 10
394.9889927220792
 20
1100.459113526869
 30
0.0
  0
SPLINE
  5
4C
330
1F
100
AcDbEntity
  8
WIND
  6
Continuous
 62
     7
100
AcDbSpline
210
0.0
220
0.0
230
1.0
 70
    11
 71
     3
 72
   118
 73
   114
 74
     0
 42
0.0000000000065085
 43
0.0000000001
 40
0.0
 40
0.0
 40
0.0
 40
0.0
 40
0.03125
 40
0.03125
 40
0.0390625000000001
 40
0.0390625000000001
 40
0.0468750000000001
 40
0.0468750000000001
 40
0.0625000000000001
 40
0.0625000000000001
 40
0.0781250000000002
 40
0.0781250000000002
 40
0.0859375000000002
 40
0.0859375000000002
 40
0.0937500000000002
 40
0.0937500000000002
 40
0.1250000000000001
 40
0.1250000000000001
 40
0.1406250000000001
 40
0.1406250000000001
 40
0.1562500000000001
 40
0.1562500000000001
 40
0.171875
 40
0.171875
 40
0.1875
 40
0.1875
 40
0.2187499999999999
 40
0.2187499999999999
 40
0.2343749999999999
 40
0.2343749999999999
 40
0.2499999999999999
 40
0.2499999999999999
 40
0.2812499999999998
 40
0.2812499999999998
 40
0.2968749999999997
 40
0.2968749999999997
 40
0.3124999999999997
 40
0.3124999999999997
 40
0.3437499999999996
 40
0.3437499999999996
 40
0.3749999999999996
 40
0.3749999999999996
 40
0.3906249999999995
 40
0.3906249999999995
 40
0.4062499999999995
 40
0.4062499999999995
 40
0.4218749999999994
 40
0.4218749999999994
 40
0.4374999999999994
 40
0.4374999999999994
 40
0.4687499999999994
 40
0.4687499999999994
 40
0.4765624999999994
 40
0.4765624999999994
 40
0.4843749999999994
 40
0.4843749999999994
 40
0.4999999999999994
 40
0.4999999999999994
 40
0.5156249999999994
 40
0.5156249999999994
 40
0.5312499999999994
 40
0.5312499999999994
 40
0.5624999999999996
 40
0.5624999999999996
 40
0.5937499999999996
 40
0.5937499999999996
 40
0.6093749999999996
 40
0.6093749999999996
 40
0.6249999999999996
 40
0.6249999999999996
 40
0.6406249999999997
 40
0.6406249999999997
 40
0.6562499999999997
 40
0.6562499999999997
 40
0.6874999999999997
 40
0.6874999999999997
 40
0.7031249999999997
 40
0.7031249999999997
 40
0.7187499999999998
 40
0.7187499999999998
 40
0.7499999999999998
 40
0.7499999999999998
 40
0.7656249999999998
 40
0.7656249999999998
 40
0.7812499999999998
 40
0.7812499999999998
 40
0.8124999999999999
 40
0.8124999999999999
 40
0.8437499999999999
 40
0.8437499999999999
 40
0.8593749999999999
 40
0.8593749999999999
 40
0.8749999999999999
 40
0.8749999999999999
 40
0.890625
 40
0.890625
 40
0.8984375
 40
0.8984375
 40
0.90625
 40
0.90625
 40
0.9375
 40
0.9375
 40
0.9453125
 40
0.9453125
 40
0.953125
 40
0.953125
 40
0.9687500000000001
 40
0.9687500000000001
 40
0.9843750000000001
 40
0.9843750000000001
 40
0.9921875000000001
 40
0.9921875000000001
 40
1.0
 40
1.0
 40
1.0
 40
1.0
 10
399.9889927220791
 20
1100.459113526869
 30
0.0
 10
399.9889927220791
 20
1084.305771801383
 30
0.0
 10
402.1272977670257
 20
1068.528106325879
 30
0.0
 10
407.2997444160304
 20
1049.245170120142
 30
0.0
 10
408.4606278908577
 20
1045.410788914815
 30
0.0
 10
411.036515566526
 20
1037.786672669879
 30
0.0
 10
412.4515100715852
 20
1034.000671523003
 30
0.0
 10
417.0120573884035
 20
1022.863497153342
 30
0.0
 10
420.4890485558772
 20
1015.679084226256
 30
0.0
 10
428.2587791212952
 20
1001.759341250115
 30
0.0
 10
432.5515881537587
 20
995.0240495360133
 30
0.0
 10
439.5824757279863
 20
985.2468382910942
 30
0.0
 10
442.0314515685472
 20
982.0345022601923
 30
0.0
 10
447.0761552634364
 20
975.7780450522263
 30
0.0
 10
449.6750154226948
 20
972.7289887948518
 30
0.0
 10
463.03368759752
 20
957.8607663711491
 30
0.0
 10
474.8734031289013
 20
947.1591061781069
 30
0.0
 10
494.2055152035242
 20
932.733910782394
 30
0.0
 10
500.869022434835
 20
928.2336949614576
 30
0.0
 10
514.4863085871718
 20
919.8861122825757
 30
0.0
 10
521.4590468186639
 20
916.0256609499457
 30
0.0
 10
535.715824702133
 20
908.8991889308718
 30
0.0
 10
542.9995416451027
 20
905.6325520309729
 30
0.0
 10
557.8695196971948
 20
899.6769868837924
 30
0.0
 10
565.4753966460207
 20
896.9847740415349
 30
0.0
 10
588.4002153849086
 20
889.8731655035804
 30
0.0
 10
603.9222604649228
 20
886.3595088317802
 30
0.0
 10
627.5437568283863
 20
882.8282871007565
 30
0.0
 10
635.4743273916908
 20
881.942805115509
 30
0.0
 10
651.4493114062662
 20
880.7569059723595
 30
0.0
 10
659.5042203419596
 20
880.4590042235081
 30
0.0
 10
683.4718384558738
 20
880.4593322246038
 30
0.0
 10
699.3095243694572
 20
881.6291191082835
 30
0.0
 10
722.8563912769085
 20
885.1262896992084
 30
0.0
 10
730.6700474544817
 20
886.585385291414
 30
0.0
 10
746.2246661604618
 20
890.1077298199134
 30
0.0
 10
753.9922028188755
 20
892.1791047419395
 30
0.0
 10
776.9941321235005
 20
899.2972360752611
 30
0.0
 10
791.7467369683347
 20
905.17700148029
 30
0.0
 10
820.0590461671668
 20
919.2614910064445
 30
0.0
 10
833.6181187721286
 20
927.4674464041423
 30
0.0
 10
852.931819372188
 20
941.7739220624989
 30
0.0
 10
859.2042634464832
 20
946.8925705980772
 30
0.0
 10
871.0870670333683
 20
957.612712469135
 30
0.0
 10
876.7357756496682
 20
963.2387983014596
 30
0.0
 10
887.4218253022967
 20
975.0466128590448
 30
0.0
 10
892.4586169985447
 20
981.2288408533572
 30
0.0
 10
901.8714216363419
 20
994.1938471997034
 30
0.0
 10
906.2676953133289
 20
1001.020669341387
 30
0.0
 10
918.0582271358013
 20
1021.94353137317
 30
0.0
 10
924.1738826527903
 20
1036.582326629023
 30
0.0
 10
929.4621296130807
 20
1055.813005666517
 30
0.0
 10
930.4006044314024
 20
1059.706288139715
 30
0.0
 10
932.0289415998799
 20
1067.591206690891
 30
0.0
 10
932.7187478687608
 20
1071.59031284446
 30
0.0
 10
934.3742369720122
 20
1083.538572478448
 30
0.0
 10
934.9423138137744
 20
1091.501618242428
 30
0.0
 10
935.0301705982711
 20
1107.422893517855
 30
0.0
 10
934.5497894013236
 20
1115.381122288969
 30
0.0
 10
932.5251461917904
 20
1131.292691980552
 30
0.0
 10
930.9650937112839
 20
1139.278415502659
 30
0.0
 10
924.8334152802191
 20
1162.540643010132
 30
0.0
 10
918.8156780749854
 20
1177.355029086025
 30
0.0
 10
903.1652806886802
 20
1205.652107014354
 30
0.0
 10
893.8170064217376
 20
1218.630664961018
 30
0.0
 10
877.8064162998435
 20
1236.571242562068
 30
0.0
 10
872.1052022984694
 20
1242.320351570912
 30
0.0
 10
860.2247388923141
 20
1253.161172143375
 30
0.0
 10
854.0488439540337
 20
1258.255816403096
 30
0.0
 10
841.2600438409324
 20
1267.841009471761
 30
0.0
 10
834.6475353170804
 20
1272.332106586043
 30
0.0
 10
821.0054566685627
 20
1280.737781102526
 30
0.0
 10
813.946610328985
 20
1284.665412704786
 30
0.0
 10
792.3819842965362
 20
1295.483950776863
 30
0.0
 10
777.5507775876389
 20
1301.410973395805
 30
0.0
 10
754.6818969576581
 20
1308.543397231041
 30
0.0
 10
746.95467710399
 20
1310.62621084822
 30
0.0
 10
731.2939953378258
 20
1314.208952048886
 30
0.0
 10
723.3575843891072
 20
1315.70615349688
 30
0.0
 10
699.6008083713924
 20
1319.267638191839
 30
0.0
 10
683.7131241369894
 20
1320.444818020118
 30
0.0
 10
659.8089786077809
 20
1320.466069226204
 30
0.0
 10
651.8287257598904
 20
1320.179970157296
 30
0.0
 10
635.8434157612949
 20
1319.011902340593
 30
0.0
 10
627.8090265547472
 20
1318.12412351974
 30
0.0
 10
604.0234507595733
 20
1314.584574387605
 30
0.0
 10
588.5107203444016
 20
1311.066179829706
 30
0.0
 10
558.1822288251648
 20
1301.683971680869
 30
0.0
 10
543.3670921217578
 20
1295.818056876625
 30
0.0
 10
521.7321132450801
 20
1285.041387164475
 30
0.0
 10
514.684187027263
 20
1281.145704527904
 30
0.0
 10
501.0459115171934
 20
1272.80047082934
 30
0.0
 10
494.4355762950499
 20
1268.342103401574
 30
0.0
 10
481.650465512951
 20
1258.829296153092
 30
0.0
 10
475.4760446774862
 20
1253.774370884586
 30
0.0
 10
466.5665584723365
 20
1245.710065211019
 30
0.0
 10
463.6554329855103
 20
1242.941626712288
 30
0.0
 10
457.9563222369766
 20
1237.236229773639
 30
0.0
 10
455.1708294807191
 20
1234.300680629233
 30
0.0
 10
441.7217070937548
 20
1219.358163471876
 30
0.0
 10
432.3481443051541
 20
1206.438798671942
 30
0.0
 10
422.5541809196988
 20
1188.949971173939
 30
0.0
 10
420.6926027500321
 20
1185.384482681874
 30
0.0
 10
417.173853882583
 20
1178.111108374085
 30
0.0
 10
415.5232569909703
 20
1174.414863049977
 30
0.0
 10
410.953553781728
 20
1163.267553202097
 30
0.0
 10
408.3930994079356
 20
1155.712028281347
 30
0.0
 10
404.2529905355649
 20
1140.350770861291
 30
0.0
 10
402.6735455264765
 20
1132.544984920035
 30
0.0
 10
401.0735101621082
 20
1120.640096060006
 30
0.0
 10
400.6687868355976
 20
1116.638987628185
 30
0.0
 10
400.1258315760859
 20
1108.568787307407
 30
0.0
 10
399.9889927220791
 20
1104.497448958241
 30
0.0
 10
399.9889927220791
 20
1100.459113526869
 30
0.0
  0
SPLINE
  5
4D
330
1F
100
AcDbEntity
  8
WIND
  6
Continuous
 62
     7
100
AcDbSpline
210
0.0
220
0.0
230
1.0
 70
    11
 71
     3
 72
   120
 73
   116
 74
     0
 42
0.0000000000065337
 43
0.0000000001
 40
0.0
 40
0.0
 40
0.0
 40
0.0
 40
0.0312500000000002
 40
0.0312500000000002
 40
0.0390625000000002
 40
0.0390625000000002
 40
0.0468750000000002
 40
0.0468750000000002
 40
0.0625000000000003
 40
0.0625000000000003
 40
0.0781250000000003
 40
0.0781250000000003
 40
0.0859375000000004
 40
0.0859375000000004
 40
0.0937500000000004
 40
0.0937500000000004
 40
0.1250000000000006
 40
0.1250000000000006
 40
0.1406250000000006
 40
0.1406250000000006
 40
0.1562500000000007
 40
0.1562500000000007
 40
0.1718750000000007
 40
0.1718750000000007
 40
0.1875000000000008
 40
0.1875000000000008
 40
0.2187500000000009
 40
0.2187500000000009
 40
0.2343750000000009
 40
0.2343750000000009
 40
0.2500000000000009
 40
0.2500000000000009
 40
0.281250000000001
 40
0.281250000000001
 40
0.2968750000000011
 40
0.2968750000000011
 40
0.3125000000000011
 40
0.3125000000000011
 40
0.3437500000000011
 40
0.3437500000000011
 40
0.3750000000000012
 40
0.3750000000000012
 40
0.3906250000000012
 40
0.3906250000000012
 40
0.4062500000000013
 40
0.4062500000000013
 40
0.4218750000000013
 40
0.4218750000000013
 40
0.4375000000000013
 40
0.4375000000000013
 40
0.4687500000000014
 40
0.4687500000000014
 40
0.4765625000000014
 40
0.4765625000000014
 40
0.4843750000000013
 40
0.4843750000000013
 40
0.5000000000000013
 40
0.5000000000000013
 40
0.5156250000000013
 40
0.5156250000000013
 40
0.5312500000000013
 40
0.5312500000000013
 40
0.5625000000000012
 40
0.5625000000000012
 40
0.5937500000000012
 40
0.5937500000000012
 40
0.6015625000000012
 40
0.6015625000000012
 40
0.6093750000000012
 40
0.6093750000000012
 40
0.6250000000000012
 40
0.6250000000000012
 40
0.6406250000000012
 40
0.6406250000000012
 40
0.6562500000000012
 40
0.6562500000000012
 40
0.687500000000001
 40
0.687500000000001
 40
0.703125000000001
 40
0.703125000000001
 40
0.718750000000001
 40
0.718750000000001
 40
0.7500000000000008
 40
0.7500000000000008
 40
0.7656250000000008
 40
0.7656250000000008
 40
0.7812500000000008
 40
0.7812500000000008
 40
0.8125000000000007
 40
0.8125000000000007
 40
0.8437500000000004
 40
0.8437500000000004
 40
0.8593750000000004
 40
0.8593750000000004
 40
0.8750000000000004
 40
0.8750000000000004
 40
0.8906250000000004
 40
0.8906250000000004
 40
0.8984375000000004
 40
0.8984375000000004
 40
0.9062500000000004
 40
0.9062500000000004
 40
0.9375000000000004
 40
0.9375000000000004
 40
0.9453125000000003
 40
0.9453125000000003
 40
0.9531250000000003
 40
0.9531250000000003
 40
0.9687500000000002
 40
0.9687500000000002
 40
0.9843750000000002
 40
0.9843750000000002
 40
0.9921875000000002
 40
0.9921875000000002
 40
1.0
 40
1.0
 40
1.0
 40
1.0
 10
401.02135212183
 20
1100.459101560628
 30
0.0
 10
401.0213510530952
 20
1116.549884065172
 30
0.0
 10
403.1485893917797
 20
1132.266361682836
 30
0.0
 10
408.2952870772428
 20
1151.474236716712
 30
0.0
 10
409.450434793848
 20
1155.293674762204
 30
0.0
 10
412.0136959580974
 20
1162.888039497763
 30
0.0
 10
413.4222296347091
 20
1166.66045122277
 30
0.0
 10
417.9621212247901
 20
1177.75687271272
 30
0.0
 10
421.4234324845806
 20
1184.914613778706
 30
0.0
 10
429.1598802808594
 20
1198.781033686951
 30
0.0
 10
433.4343324854814
 20
1205.490090138014
 30
0.0
 10
440.4344552294258
 20
1215.228975920398
 30
0.0
 10
442.8730523789147
 20
1218.429040615182
 30
0.0
 10
447.8984793738701
 20
1224.662915099281
 30
0.0
 10
450.4874595131404
 20
1227.700692316017
 30
0.0
 10
463.7954361836607
 20
1242.512728146029
 30
0.0
 10
475.5903736142992
 20
1253.170227100958
 30
0.0
 10
494.8477876166715
 20
1267.532094826164
 30
0.0
 10
501.4892733814197
 20
1272.014431217061
 30
0.0
 10
515.0579160916349
 20
1280.325550550128
 30
0.0
 10
522.0053386901678
 20
1284.168541833736
 30
0.0
 10
536.2095609708069
 20
1291.261631957607
 30
0.0
 10
543.4660303260162
 20
1294.512363838685
 30
0.0
 10
558.279316005777
 20
1300.438240532633
 30
0.0
 10
565.8568160664569
 20
1303.117171600179
 30
0.0
 10
588.6976332780716
 20
1310.193594246006
 30
0.0
 10
604.1612681937636
 20
1313.688624591433
 30
0.0
 10
627.6912711029411
 20
1317.201153909151
 30
0.0
 10
635.5907066459207
 20
1318.081888216575
 30
0.0
 10
651.5020914657952
 20
1319.261529688116
 30
0.0
 10
659.5262933426943
 20
1319.558043155722
 30
0.0
 10
683.4034409773157
 20
1319.55831274812
 30
0.0
 10
699.1804554827376
 20
1318.395234691101
 30
0.0
 10
722.6357945684986
 20
1314.917630359217
 30
0.0
 10
730.4188591023498
 20
1313.466700505369
 30
0.0
 10
745.9121244755632
 20
1309.964068850842
 30
0.0
 10
753.6466766330788
 20
1307.904966780439
 30
0.0
 10
776.568233026172
 20
1300.822549537048
 30
0.0
 10
791.2679120051124
 20
1294.971800444147
 30
0.0
 10
819.4753939353448
 20
1280.955393704393
 30
0.0
 10
832.982631427049
 20
1272.788637799662
 30
0.0
 10
852.2196064746254
 20
1258.549881577543
 30
0.0
 10
858.4710452848079
 20
1253.451755334514
 30
0.0
 10
870.3136927571265
 20
1242.773089868255
 30
0.0
 10
875.9423291132629
 20
1237.168853293458
 30
0.0
 10
886.5884087508807
 20
1225.407204966089
 30
0.0
 10
891.6052934299687
 20
1219.249287636817
 30
0.0
 10
900.9786312172488
 20
1206.335713300274
 30
0.0
 10
905.3573833305182
 20
1199.535096459145
 30
0.0
 10
917.1039254064198
 20
1178.68549099305
 30
0.0
 10
923.1914290929465
 20
1164.099560380836
 30
0.0
 10
928.4547321424541
 20
1144.943808827608
 30
0.0
 10
929.3886922730833
 20
1141.065941926702
 30
0.0
 10
931.0091808824659
 20
1133.212827194592
 30
0.0
 10
931.6958977998539
 20
1129.228839136585
 30
0.0
 10
933.3441204126444
 20
1117.324550283769
 30
0.0
 10
933.9097499737286
 20
1109.391334122528
 30
0.0
 10
933.9979452092764
 20
1093.530724506938
 30
0.0
 10
933.5203499681039
 20
1085.60333195087
 30
0.0
 10
931.5069246414475
 20
1069.754454234631
 30
0.0
 10
929.9551389288638
 20
1061.799132828866
 30
0.0
 10
923.8539865221779
 20
1038.623446293753
 30
0.0
 10
917.8683877660393
 20
1023.869545262988
 30
0.0
 10
902.2833068543545
 20
995.6740787401361
 30
0.0
 10
892.9737902323924
 20
982.7424307630515
 30
0.0
 10
879.6848921756676
 20
967.8504948141058
 30
0.0
 10
876.9435931672568
 20
964.9363963982854
 30
0.0
 10
871.2965724118376
 20
959.2347634146654
 30
0.0
 10
868.3891022237921
 20
956.4464458270638
 30
0.0
 10
859.5111004557558
 20
948.34722198859
 30
0.0
 10
853.3577349928087
 20
943.2729750750347
 30
0.0
 10
840.6157008954816
 20
933.7277089643845
 30
0.0
 10
834.027447634538
 20
929.2561141574944
 30
0.0
 10
820.4359510524479
 20
920.8880030701263
 30
0.0
 10
813.4039719529426
 20
916.9785650369124
 30
0.0
 10
791.9162318442287
 20
906.2088891134086
 30
0.0
 10
777.1390309527627
 20
900.3108355574154
 30
0.0
 10
754.3558693578248
 20
893.2142374200262
 30
0.0
 10
746.6579799104585
 20
891.1421781568258
 30
0.0
 10
731.0576048872872
 20
887.5781777637783
 30
0.0
 10
723.1509764503137
 20
886.0886712623405
 30
0.0
 10
699.4835812329055
 20
882.545513796085
 30
0.0
 10
683.6565283964
 20
881.3746190526401
 30
0.0
 10
659.8448974284061
 20
881.3530308063151
 30
0.0
 10
651.8957463149218
 20
881.6373735503352
 30
0.0
 10
635.9731752576465
 20
882.7985915101466
 30
0.0
 10
627.9699332091344
 20
883.6812669363189
 30
0.0
 10
604.2729412179453
 20
887.2015896964444
 30
0.0
 10
588.8183062612183
 20
890.7010614045168
 30
0.0
 10
558.604444543528
 20
900.0343510792999
 30
0.0
 10
543.845755586371
 20
905.8699743458499
 30
0.0
 10
522.2943388465219
 20
916.5925641932859
 30
0.0
 10
515.2680414643181
 20
920.472165972906
 30
0.0
 10
501.6769481887594
 20
928.7808807271933
 30
0.0
 10
495.0898765102249
 20
933.2199920442889
 30
0.0
 10
482.3507785033028
 20
942.6924389342887
 30
0.0
 10
476.1991361992648
 20
947.7262990423552
 30
0.0
 10
467.3231520700557
 20
955.757171433487
 30
0.0
 10
464.4230961268578
 20
958.5141774942481
 30
0.0
 10
458.7459374710274
 20
964.1961302497923
 30
0.0
 10
455.970328567456
 20
967.1207046032603
 30
0.0
 10
442.5705372692794
 20
982.0071189623438
 30
0.0
 10
433.2357544406602
 20
994.8791559304764
 30
0.0
 10
423.4829212614604
 20
1012.30098448328
 30
0.0
 10
421.6294709918076
 20
1015.852866794043
 30
0.0
 10
418.1264469449507
 20
1023.09836908731
 30
0.0
 10
416.4827787650353
 20
1026.78163825749
 30
0.0
 10
411.9331439398612
 20
1037.888601469725
 30
0.0
 10
409.3844870386551
 20
1045.416464435103
 30
0.0
 10
405.2639815021613
 20
1060.720652224813
 30
0.0
 10
403.6923327026963
 20
1068.49702787957
 30
0.0
 10
402.1003367210212
 20
1080.356298858652
 30
0.0
 10
401.6976761496162
 20
1084.341948593747
 30
0.0
 10
401.1574971175186
 20
1092.380689857803
 30
0.0
 10
401.0213523890137
 20
1096.436405934492
 30
0.0
 10
401.02135212183
 20
1100.459101560628
 30
0.0
  0
SPLINE
  5
4E
330
1F
100
AcDbEntity
  8
WIND
  6
Continuous
 62
     7
100
AcDbSpline
210
0.0
220
0.0
230
1.0
 70
    11
 71
     3
 72
   122
 73
   118
 74
     0
 42
0.0000000000066684
 43
0.0000000001
 40
0.0
 40
0.0
 40
0.0
 40
0.0
 40
0.0156250000000001
 40
0.0156250000000001
 40
0.0312500000000001
 40
0.0312500000000001
 40
0.0390625000000001
 40
0.0390625000000001
 40
0.0468750000000001
 40
0.0468750000000001
 40
0.0625000000000002
 40
0.0625000000000002
 40
0.0703125000000002
 40
0.0703125000000002
 40
0.0781250000000002
 40
0.0781250000000002
 40
0.0937500000000003
 40
0.0937500000000003
 40
0.1093750000000004
 40
0.1093750000000004
 40
0.1250000000000005
 40
0.1250000000000005
 40
0.1562500000000006
 40
0.1562500000000006
 40
0.1718750000000006
 40
0.1718750000000006
 40
0.1875000000000007
 40
0.1875000000000007
 40
0.2187500000000008
 40
0.2187500000000008
 40
0.2343750000000009
 40
0.2343750000000009
 40
0.2500000000000009
 40
0.2500000000000009
 40
0.281250000000001
 40
0.281250000000001
 40
0.2968750000000011
 40
0.2968750000000011
 40
0.3125000000000011
 40
0.3125000000000011
 40
0.3437500000000012
 40
0.3437500000000012
 40
0.3593750000000013
 40
0.3593750000000013
 40
0.3671875000000013
 40
0.3671875000000013
 40
0.3750000000000013
 40
0.3750000000000013
 40
0.4062500000000014
 40
0.4062500000000014
 40
0.4218750000000014
 40
0.4218750000000014
 40
0.4375000000000015
 40
0.4375000000000015
 40
0.4687500000000016
 40
0.4687500000000016
 40
0.4765625000000016
 40
0.4765625000000016
 40
0.4843750000000016
 40
0.4843750000000016
 40
0.5000000000000017
 40
0.5000000000000017
 40
0.5156250000000017
 40
0.5156250000000017
 40
0.5312500000000018
 40
0.5312500000000018
 40
0.5468750000000018
 40
0.5468750000000018
 40
0.5625000000000019
 40
0.5625000000000019
 40
0.5937500000000019
 40
0.5937500000000019
 40
0.6015625000000019
 40
0.6015625000000019
 40
0.6093750000000019
 40
0.6093750000000019
 40
0.6250000000000019
 40
0.6250000000000019
 40
0.6406250000000018
 40
0.6406250000000018
 40
0.6562500000000018
 40
0.6562500000000018
 40
0.6875000000000017
 40
0.6875000000000017
 40
0.7031250000000016
 40
0.7031250000000016
 40
0.7187500000000016
 40
0.7187500000000016
 40
0.7500000000000014
 40
0.7500000000000014
 40
0.7656250000000013
 40
0.7656250000000013
 40
0.7812500000000013
 40
0.7812500000000013
 40
0.8125000000000012
 40
0.8125000000000012
 40
0.8281250000000011
 40
0.8281250000000011
 40
0.8437500000000011
 40
0.8437500000000011
 40
0.875000000000001
 40
0.875000000000001
 40
0.8906250000000009
 40
0.8906250000000009
 40
0.9062500000000009
 40
0.9062500000000009
 40
0.9375000000000008
 40
0.9375000000000008
 40
0.9453125000000007
 40
0.9453125000000007
 40
0.9531250000000006
 40
0.9531250000000006
 40
0.9687500000000004
 40
0.9687500000000004
 40
0.9843750000000002
 40
0.9843750000000002
 40
1.0
 40
1.0
 40
1.0
 40
1.0
 10
405.8905581705387
 20
1100.459101884036
 30
0.0
 10
405.8905586941429
 20
1092.578781061368
 30
0.0
 10
406.4249548313769
 20
1084.702357667956
 30
0.0
 10
408.5204724774449
 20
1069.173977710708
 30
0.0
 10
410.0796671742116
 20
1061.498054898454
 30
0.0
 10
413.1753343519672
 20
1050.114797421871
 30
0.0
 10
414.3332019822433
 20
1046.346980199016
 30
0.0
 10
416.8680409266617
 20
1038.943115388787
 30
0.0
 10
418.248017587936
 20
1035.295761595188
 30
0.0
 10
422.7127327650467
 20
1024.511187442299
 30
0.0
 10
426.1210599982348
 20
1017.530874157264
 30
0.0
 10
431.8514089021396
 20
1007.360001346622
 30
0.0
 10
433.8645663634966
 20
1004.019674690509
 30
0.0
 10
438.0941614525485
 20
997.4375911664554
 30
0.0
 10
440.3173007139382
 20
994.1868672878959
 30
0.0
 10
447.2362858854988
 20
984.6556827293997
 30
0.0
 10
452.169797909266
 20
978.6064574292728
 30
0.0
 10
462.6260519382064
 20
967.0679315782304
 30
0.0
 10
468.1482801310274
 20
961.5781427797017
 30
0.0
 10
479.7513221800736
 20
951.1293696293064
 30
0.0
 10
485.86215342611
 20
946.1512189548941
 30
0.0
 10
504.7384141014445
 20
932.1938666089067
 30
0.0
 10
518.051494560088
 20
924.1458770229065
 30
0.0
 10
539.0006852189584
 20
913.7630430335175
 30
0.0
 10
546.1650635513636
 20
910.578572550233
 30
0.0
 10
560.7409851810978
 20
904.796714640888
 30
0.0
 10
568.1044676938292
 20
902.2170895682848
 30
0.0
 10
590.4091017027501
 20
895.3611006597756
 30
0.0
 10
605.561566792983
 20
891.955781014857
 30
0.0
 10
628.6993702197419
 20
888.534154186519
 30
0.0
 10
636.5095160599562
 20
887.6746228503164
 30
0.0
 10
652.1115540108625
 20
886.5379826812605
 30
0.0
 10
659.892755543089
 20
886.2590047503467
 30
0.0
 10
683.1782081612009
 20
886.2711118138507
 30
0.0
 10
698.6249255122974
 20
887.4022110709307
 30
0.0
 10
721.6777050084622
 20
890.8114335665376
 30
0.0
 10
729.3422211274244
 20
892.2361067332121
 30
0.0
 10
744.630101039388
 20
895.6862925752278
 30
0.0
 10
752.1986135671066
 20
897.7011457327962
 30
0.0
 10
774.4735593017704
 20
904.563739059636
 30
0.0
 10
788.8367627017731
 20
910.2431950313372
 30
0.0
 10
809.6109309339796
 20
920.5108501580099
 30
0.0
 10
816.4060065979074
 20
924.2275535995432
 30
0.0
 10
826.390067071542
 20
930.2757875335428
 30
0.0
 10
829.6833179556286
 20
932.3707523167659
 30
0.0
 10
836.1970538487083
 20
936.7257778671792
 30
0.0
 10
839.4227689356335
 20
938.9902330810879
 30
0.0
 10
855.1912596132183
 20
950.6198739345659
 30
0.0
 10
866.7866773161833
 20
960.9762767340553
 30
0.0
 10
882.5013665236615
 20
978.2441739170027
 30
0.0
 10
887.4602836393002
 20
984.2962202635265
 30
0.0
 10
896.7415837684196
 20
997.0266925360906
 30
0.0
 10
900.9759537768335
 20
1003.582366717386
 30
0.0
 10
912.4467548811936
 20
1023.827016885009
 30
0.0
 10
918.4652389979613
 20
1038.086888576168
 30
0.0
 10
923.6871872606112
 20
1056.990364441875
 30
0.0
 10
924.617321333077
 20
1060.840321421098
 30
0.0
 10
926.2089378104719
 20
1068.533758221796
 30
0.0
 10
926.8741885083164
 20
1072.386929561766
 30
0.0
 10
928.4832402560512
 20
1083.965556643051
 30
0.0
 10
929.0412818276861
 20
1091.710078943164
 30
0.0
 10
929.1281025078399
 20
1107.249995904339
 30
0.0
 10
928.6568629826146
 20
1115.045391486423
 30
0.0
 10
926.6468537836603
 20
1130.688946426266
 30
0.0
 10
925.1233198378484
 20
1138.397770065399
 30
0.0
 10
921.122352709126
 20
1153.474098012694
 30
0.0
 10
918.6422583928295
 20
1160.863489631357
 30
0.0
 10
912.7510626949686
 20
1175.35348023474
 30
0.0
 10
909.3145331431385
 20
1182.494712210877
 30
0.0
 10
897.8617388602138
 20
1203.050052591756
 30
0.0
 10
888.7144818233172
 20
1215.692493998063
 30
0.0
 10
875.5841996111601
 20
1230.30519688225
 30
0.0
 10
872.8678962620054
 20
1233.171637586936
 30
0.0
 10
867.3210547951012
 20
1238.732295103742
 30
0.0
 10
864.4849262431169
 20
1241.433214869241
 30
0.0
 10
855.7963363189164
 20
1249.307775532811
 30
0.0
 10
849.763753249922
 20
1254.253322345997
 30
0.0
 10
837.2477248248651
 20
1263.573474314274
 30
0.0
 10
830.7647193922463
 20
1267.948636548015
 30
0.0
 10
817.3637186748804
 20
1276.148119144765
 30
0.0
 10
810.4688096791152
 20
1279.954218356668
 30
0.0
 10
789.4869315879694
 20
1290.407324813383
 30
0.0
 10
775.0095025951375
 20
1296.163126073354
 30
0.0
 10
752.6097530981988
 20
1303.102950153443
 30
0.0
 10
745.000710026652
 20
1305.138306631282
 30
0.0
 10
729.7022538066283
 20
1308.61039031548
 30
0.0
 10
722.0262315240508
 20
1310.046681575902
 30
0.0
 10
698.9206934928671
 20
1313.488873168976
 30
0.0
 10
683.414723780927
 20
1314.639471140084
 30
0.0
 10
660.0035859565188
 20
1314.662870311044
 30
0.0
 10
652.1545765602683
 20
1314.383057380277
 30
0.0
 10
636.4924172559736
 20
1313.242679261828
 30
0.0
 10
628.7294703877332
 20
1312.387330234541
 30
0.0
 10
605.6424061039213
 20
1308.976777391923
 30
0.0
 10
590.518597898233
 20
1305.583208157892
 30
0.0
 10
568.2494377558288
 20
1298.749435155993
 30
0.0
 10
560.8965116711697
 20
1296.178003117811
 30
0.0
 10
546.3391189824912
 20
1290.413783190423
 30
0.0
 10
539.1179426204045
 20
1287.210126817688
 30
0.0
 10
518.0869541546363
 20
1276.79620839469
 30
0.0
 10
504.7798202238217
 20
1268.745831819321
 30
0.0
 10
485.9840604523916
 20
1254.861668308936
 30
0.0
 10
479.9147809815196
 20
1249.9293598913
 30
0.0
 10
468.2055392809089
 20
1239.398217696885
 30
0.0
 10
462.6275858492689
 20
1233.852808357171
 30
0.0
 10
446.906819121824
 20
1216.50240470549
 30
0.0
 10
437.6993294486012
 20
1203.931430887335
 30
0.0
 10
428.0258406873205
 20
1186.769750506117
 30
0.0
 10
426.1883972075613
 20
1183.269037450566
 30
0.0
 10
422.7572779921559
 20
1176.218580507287
 30
0.0
 10
421.1564998101506
 20
1172.656972386634
 30
0.0
 10
416.6992686906175
 20
1161.862768446378
 30
0.0
 10
414.1872503141767
 20
1154.521005041104
 30
0.0
 10
410.1105747434654
 20
1139.537214579456
 30
0.0
 10
408.5459753042196
 20
1131.895169217382
 30
0.0
 10
406.4298920615293
 20
1116.289974040781
 30
0.0
 10
405.8905576469346
 20
1108.339422706704
 30
0.0
 10
405.8905581705387
 20
1100.459101884036
 30
0.0
  0
SPLINE
  5
4F
330
1F
100
AcDbEntity
  8
WIND
  6
Continuous
 62
     7
100
AcDbSpline
210
0.0
220
0.0
230
1.0
 70
    11
 71
     3
 72
   122
 73
   118
 74
     0
 42
0.0000000000070213
 43
0.0000000001
 40
0.0
 40
0.0
 40
0.0
 40
0.0
 40
0.0156250000000001
 40
0.0156250000000001
 40
0.0234375000000002
 40
0.0234375000000002
 40
0.0312500000000003
 40
0.0312500000000003
 40
0.0625000000000006
 40
0.0625000000000006
 40
0.0781250000000007
 40
0.0781250000000007
 40
0.0937500000000008
 40
0.0937500000000008
 40
0.1093750000000009
 40
0.1093750000000009
 40
0.125000000000001
 40
0.125000000000001
 40
0.1562500000000012
 40
0.1562500000000012
 40
0.1718750000000012
 40
0.1718750000000012
 40
0.1875000000000013
 40
0.1875000000000013
 40
0.2187500000000015
 40
0.2187500000000015
 40
0.2343750000000016
 40
0.2343750000000016
 40
0.2500000000000016
 40
0.2500000000000016
 40
0.2812500000000018
 40
0.2812500000000018
 40
0.2968750000000019
 40
0.2968750000000019
 40
0.312500000000002
 40
0.312500000000002
 40
0.3437500000000022
 40
0.3437500000000022
 40
0.3593750000000022
 40
0.3593750000000022
 40
0.3750000000000022
 40
0.3750000000000022
 40
0.4062500000000023
 40
0.4062500000000023
 40
0.4218750000000024
 40
0.4218750000000024
 40
0.4375000000000024
 40
0.4375000000000024
 40
0.4531250000000024
 40
0.4531250000000024
 40
0.4609375000000024
 40
0.4609375000000024
 40
0.4687500000000024
 40
0.4687500000000024
 40
0.5000000000000024
 40
0.5000000000000024
 40
0.5078125000000024
 40
0.5078125000000024
 40
0.5156250000000023
 40
0.5156250000000023
 40
0.5312500000000023
 40
0.5312500000000023
 40
0.5390625000000023
 40
0.5390625000000023
 40
0.5468750000000023
 40
0.5468750000000023
 40
0.5625000000000023
 40
0.5625000000000023
 40
0.5781250000000023
 40
0.5781250000000023
 40
0.5859375000000023
 40
0.5859375000000023
 40
0.5937500000000022
 40
0.5937500000000022
 40
0.6250000000000022
 40
0.6250000000000022
 40
0.6406250000000021
 40
0.6406250000000021
 40
0.656250000000002
 40
0.656250000000002
 40
0.6718750000000019
 40
0.6718750000000019
 40
0.6875000000000019
 40
0.6875000000000019
 40
0.7187500000000017
 40
0.7187500000000017
 40
0.7343750000000016
 40
0.7343750000000016
 40
0.7500000000000014
 40
0.7500000000000014
 40
0.7812500000000013
 40
0.7812500000000013
 40
0.7968750000000012
 40
0.7968750000000012
 40
0.8125000000000011
 40
0.8125000000000011
 40
0.843750000000001
 40
0.843750000000001
 40
0.8750000000000008
 40
0.8750000000000008
 40
0.8906250000000007
 40
0.8906250000000007
 40
0.9062500000000007
 40
0.9062500000000007
 40
0.9218750000000006
 40
0.9218750000000006
 40
0.9375000000000004
 40
0.9375000000000004
 40
0.9687500000000003
 40
0.9687500000000003
 40
0.9765625000000002
 40
0.9765625000000002
 40
0.9843750000000002
 40
0.9843750000000002
 40
0.9921875000000001
 40
0.9921875000000001
 40
1.0
 40
1.0
 40
1.0
 40
1.0
 10
418.8827309282429
 20
1100.45912524722
 30
0.0
 10
418.8827314566774
 20
1107.945597175844
 30
0.0
 10
419.3870034649314
 20
1115.370774960486
 30
0.0
 10
420.8772296334549
 20
1126.419346304354
 30
0.0
 10
421.4965505054684
 20
1130.087304016427
 30
0.0
 10
422.9798056896129
 20
1137.393486850176
 30
0.0
 10
423.8471746408467
 20
1141.042760656287
 30
0.0
 10
428.7460647835412
 20
1159.027010022873
 30
0.0
 10
434.4384340052054
 20
1172.644926767323
 30
0.0
 10
445.3756591993762
 20
1192.030946020722
 30
0.0
 10
449.446649570765
 20
1198.341746165891
 30
0.0
 10
458.1823969809034
 20
1210.350569413834
 30
0.0
 10
462.862682541606
 20
1216.081168049633
 30
0.0
 10
472.8045842806619
 20
1227.032863849706
 30
0.0
 10
478.0656424561794
 20
1232.254449896127
 30
0.0
 10
489.1453932348945
 20
1242.208890003749
 30
0.0
 10
494.9446632113421
 20
1246.918662821974
 30
0.0
 10
512.8277356907645
 20
1260.110990750512
 30
0.0
 10
525.4811848443682
 20
1267.752160612646
 30
0.0
 10
545.4647157179411
 20
1277.631220028274
 30
0.0
 10
552.3020183680538
 20
1280.659308921041
 30
0.0
 10
566.0891827762796
 20
1286.11264297666
 30
0.0
 10
573.0652803737214
 20
1288.551372745993
 30
0.0
 10
594.2299219623563
 20
1295.042824996401
 30
0.0
 10
608.6516326278606
 20
1298.281914233229
 30
0.0
 10
630.7440292876835
 20
1301.535971499309
 30
0.0
 10
638.1423124914543
 20
1302.344039790652
 30
0.0
 10
652.8903611754474
 20
1303.413607940974
 30
0.0
 10
660.2581630717025
 20
1303.67779652193
 30
0.0
 10
682.3431243333156
 20
1303.668269259791
 30
0.0
 10
697.0420408611279
 20
1302.60122694889
 30
0.0
 10
719.0524649977442
 20
1299.350303771554
 30
0.0
 10
726.4045525618815
 20
1297.981963120448
 30
0.0
 10
740.8570496372228
 20
1294.721761872337
 30
0.0
 10
747.9831800285152
 20
1292.827929391792
 30
0.0
 10
769.0595367275855
 20
1286.350811272008
 30
0.0
 10
782.7097543384347
 20
1280.977240513194
 30
0.0
 10
802.5342969589736
 20
1271.202584638919
 30
0.0
 10
809.0329797756411
 20
1267.655925651807
 30
0.0
 10
821.7920959457033
 20
1259.935007348639
 30
0.0
 10
827.9903225179698
 20
1255.796691190173
 30
0.0
 10
845.8585568064644
 20
1242.633366469325
 30
0.0
 10
856.8787703024134
 20
1232.824629760626
 30
0.0
 10
871.8886863828712
 20
1216.350341276322
 30
0.0
 10
876.6504191089957
 20
1210.535027237308
 30
0.0
 10
885.3996572206794
 20
1198.537393809282
 30
0.0
 10
889.4157814782474
 20
1192.329975932049
 30
0.0
 10
896.7002505534392
 20
1179.480019144979
 30
0.0
 10
899.9679277158822
 20
1172.837091583603
 30
0.0
 10
904.2640350394704
 20
1162.520419091394
 30
0.0
 10
905.5990015441274
 20
1159.009324097426
 30
0.0
 10
908.0258585854947
 20
1151.953801461255
 30
0.0
 10
909.1205162229572
 20
1148.405532676481
 30
0.0
 10
914.0037776135385
 20
1130.562311983063
 30
0.0
 10
916.0433722072873
 20
1115.965367592844
 30
0.0
 10
916.1070196025356
 20
1097.289965331755
 30
0.0
 10
915.9925651587419
 20
1093.534321807653
 30
0.0
 10
915.5159057279653
 20
1086.100867225497
 30
0.0
 10
915.1540476777809
 20
1082.407698226166
 30
0.0
 10
913.7064586539443
 20
1071.397231581773
 30
0.0
 10
912.2602767239179
 20
1064.148676029014
 30
0.0
 10
909.3845996005649
 20
1053.410561263919
 30
0.0
 10
908.3081004092024
 20
1049.853682063089
 30
0.0
 10
905.9187314619066
 20
1042.785001787701
 30
0.0
 10
904.6021726451244
 20
1039.266309855099
 30
0.0
 10
900.3543175549071
 20
1028.914748865549
 30
0.0
 10
897.1137798145229
 20
1022.242427921579
 30
0.0
 10
889.8706482316925
 20
1009.324318121889
 30
0.0
 10
885.8687083722903
 20
1003.078163017896
 30
0.0
 10
879.3165654780051
 20
994.0163405719414
 30
0.0
 10
877.0344806443934
 20
991.0399141816721
 30
0.0
 10
872.3327931383067
 20
985.2438344884689
 30
0.0
 10
869.9107621371691
 20
982.4199434362398
 30
0.0
 10
857.4620606510217
 20
968.6531176345039
 30
0.0
 10
846.4320935269733
 20
958.7552159767997
 30
0.0
 10
828.4317803627081
 20
945.4242551471881
 30
0.0
 10
822.2308577652775
 20
941.2688818135673
 30
0.0
 10
809.5596492421661
 20
933.5623282759625
 30
0.0
 10
803.0726172176845
 20
929.9997186733009
 30
0.0
 10
789.811580522468
 20
923.4253443087368
 30
0.0
 10
783.0378741016449
 20
920.4130071899042
 30
0.0
 10
769.2119277153953
 20
914.9229793926672
 30
0.0
 10
762.1435762347492
 20
912.4430215800481
 30
0.0
 10
740.8434549292567
 20
905.8941546045835
 30
0.0
 10
726.4238204891002
 20
902.6607885427969
 30
0.0
 10
704.4835513090596
 20
899.4140619827149
 30
0.0
 10
697.1180160261965
 20
898.6006355550974
 30
0.0
 10
682.2824207391611
 20
897.5129632868055
 30
0.0
 10
674.804126172912
 20
897.2410882378479
 30
0.0
 10
652.5512220322014
 20
897.2486096948821
 30
0.0
 10
637.8453274077159
 20
898.3306722016371
 30
0.0
 10
615.9794045275278
 20
901.5598207245199
 30
0.0
 10
608.723240166905
 20
902.9065719664999
 30
0.0
 10
594.2778164885892
 20
906.1570605026619
 30
0.0
 10
587.0660985136168
 20
908.0675758847676
 30
0.0
 10
565.6904390067807
 20
914.6391162938704
 30
0.0
 10
551.9785451513338
 20
920.0679267345646
 30
0.0
 10
525.6602813919669
 20
933.0764328003077
 30
0.0
 10
513.0544297670656
 20
940.6571368509482
 30
0.0
 10
495.0968829773404
 20
953.8788942564871
 30
0.0
 10
489.2557545726099
 20
958.6171764715856
 30
0.0
 10
478.1873395964877
 20
968.5475933140999
 30
0.0
 10
472.9264978746303
 20
973.7602623086516
 30
0.0
 10
462.9762950245919
 20
984.7029267836691
 30
0.0
 10
458.2874543207766
 20
990.4333931862956
 30
0.0
 10
449.5283224108638
 20
1002.45426616613
 30
0.0
 10
445.4362804351157
 20
1008.787810416814
 30
0.0
 10
434.4625986675459
 20
1028.21466782966
 30
0.0
 10
428.7847227658363
 20
1041.81002531435
 30
0.0
 10
423.8981456261523
 20
1059.673635208985
 30
0.0
 10
423.0327102372675
 20
1063.29035543602
 30
0.0
 10
421.5352612792981
 20
1070.615592352188
 30
0.0
 10
420.903268675139
 20
1074.329590066224
 30
0.0
 10
419.8951052896672
 20
1081.757478120593
 30
0.0
 10
419.5163507036978
 20
1085.482386098583
 30
0.0
 10
419.0101784043375
 20
1092.954189713682
 30
0.0
 10
418.8827306640257
 20
1096.715889282908
 30
0.0
 10
418.8827309282429
 20
1100.45912524722
 30
0.0
  0
SPLINE
  5
50
330
1F
100
AcDbEntity
  8
WIND
  6
Continuous
 62
     7
100
AcDbSpline
210
0.0
220
0.0
230
1.0
 70
    11
 71
     3
 72
   114
 73
   110
 74
     0
 42
0.0000000000076843
 43
0.0000000001
 40
0.0
 40
0.0
 40
0.0
 40
0.0
 40
0.03125
 40
0.03125
 40
0.046875
 40
0.046875
 40
0.0625
 40
0.0625
 40
0.078125
 40
0.078125
 40
0.09375
 40
0.09375
 40
0.1093750000000001
 40
0.1093750000000001
 40
0.1250000000000001
 40
0.1250000000000001
 40
0.1562500000000001
 40
0.1562500000000001
 40
0.1718750000000001
 40
0.1718750000000001
 40
0.1875000000000002
 40
0.1875000000000002
 40
0.2187500000000003
 40
0.2187500000000003
 40
0.2343750000000003
 40
0.2343750000000003
 40
0.2500000000000003
 40
0.2500000000000003
 40
0.2812500000000004
 40
0.2812500000000004
 40
0.2968750000000004
 40
0.2968750000000004
 40
0.3125000000000006
 40
0.3125000000000006
 40
0.3437500000000006
 40
0.3437500000000006
 40
0.3750000000000007
 40
0.3750000000000007
 40
0.3906250000000007
 40
0.3906250000000007
 40
0.4062500000000007
 40
0.4062500000000007
 40
0.4218750000000007
 40
0.4218750000000007
 40
0.4375000000000008
 40
0.4375000000000008
 40
0.4687500000000008
 40
0.4687500000000008
 40
0.4765625000000008
 40
0.4765625000000008
 40
0.4843750000000008
 40
0.4843750000000008
 40
0.5000000000000008
 40
0.5000000000000008
 40
0.5156250000000008
 40
0.5156250000000008
 40
0.5234375000000008
 40
0.5234375000000008
 40
0.5312500000000008
 40
0.5312500000000008
 40
0.5468750000000008
 40
0.5468750000000008
 40
0.5546875000000008
 40
0.5546875000000008
 40
0.5625000000000008
 40
0.5625000000000008
 40
0.5937500000000007
 40
0.5937500000000007
 40
0.6093750000000007
 40
0.6093750000000007
 40
0.6250000000000008
 40
0.6250000000000008
 40
0.6406250000000008
 40
0.6406250000000008
 40
0.6562500000000008
 40
0.6562500000000008
 40
0.6875000000000007
 40
0.6875000000000007
 40
0.7031250000000007
 40
0.7031250000000007
 40
0.7187500000000006
 40
0.7187500000000006
 40
0.7500000000000004
 40
0.7500000000000004
 40
0.7656250000000003
 40
0.7656250000000003
 40
0.7812500000000002
 40
0.7812500000000002
 40
0.8125000000000001
 40
0.8125000000000001
 40
0.8281250000000001
 40
0.8281250000000001
 40
0.8437500000000001
 40
0.8437500000000001
 40
0.875
 40
0.875
 40
0.8906250000000001
 40
0.8906250000000001
 40
0.9062500000000001
 40
0.9062500000000001
 40
0.9375
 40
0.9375
 40
0.953125
 40
0.953125
 40
0.96875
 40
0.96875
 40
0.984375
 40
0.984375
 40
1.0
 40
1.0
 40
1.0
 40
1.0
 10
438.3595551230788
 20
1100.459123870209
 30
0.0
 10
438.359554155839
 20
1086.778218995323
 30
0.0
 10
440.2526603541435
 20
1073.432029537522
 30
0.0
 10
445.7318066155535
 20
1053.87942626361
 30
0.0
 10
448.0227770154884
 20
1047.401979978702
 30
0.0
 10
453.3564114443928
 20
1034.924343376216
 30
0.0
 10
456.401504408009
 20
1028.893997345224
 30
0.0
 10
463.1958924073735
 20
1017.221399431536
 30
0.0
 10
466.9444023337417
 20
1011.57871486571
 30
0.0
 10
475.1187737772797
 20
1000.666642262332
 30
0.0
 10
479.5018215167752
 20
995.4593315859101
 30
0.0
 10
488.7380446656048
 20
985.5784183671777
 30
0.0
 10
493.6017347570485
 20
980.8901112121671
 30
0.0
 10
503.7898699574465
 20
971.9865803284266
 30
0.0
 10
509.1308597575289
 20
967.7611003418085
 30
0.0
 10
525.7157995357899
 20
955.8459554248967
 30
0.0
 10
537.36357702959
 20
949.0062071136234
 30
0.0
 10
555.6151883553252
 20
940.2027457659958
 30
0.0
 10
561.8298026387403
 20
937.5123580133134
 30
0.0
 10
574.5144387287688
 20
932.6084295475542
 30
0.0
 10
580.9549035352251
 20
930.4086334678937
 30
0.0
 10
600.3809803438852
 20
924.5863771969264
 30
0.0
 10
613.5409374425577
 20
921.7028057631667
 30
0.0
 10
633.5797889387107
 20
918.8030795460639
 30
0.0
 10
640.3094755340933
 20
918.0753022123728
 30
0.0
 10
653.8695984490786
 20
917.1002571074154
 30
0.0
 10
660.6611000325441
 20
916.8570307630135
 30
0.0
 10
680.9140518641424
 20
916.8515444684289
 30
0.0
 10
694.3194686812534
 20
917.8011643982221
 30
0.0
 10
714.2826290204216
 20
920.6568757673854
 30
0.0
 10
720.9126068106245
 20
921.8497767761849
 30
0.0
 10
734.1221093411505
 20
924.733716773045
 30
0.0
 10
740.7308718455329
 20
926.4337925441309
 30
0.0
 10
760.2274563382116
 20
932.250787646955
 30
0.0
 10
772.7683184457561
 20
937.0637453344738
 30
0.0
 10
796.904746806693
 20
948.6241986313232
 30
0.0
 10
808.5000509120974
 20
955.3722307237257
 30
0.0
 10
825.0732328049273
 20
967.1719381861674
 30
0.0
 10
830.4702261010095
 20
971.4014028698077
 30
0.0
 10
840.7182178199582
 20
980.2781744944067
 30
0.0
 10
845.6008637236745
 20
984.94445363475
 30
0.0
 10
854.8590922249804
 20
994.7558035688221
 30
0.0
 10
859.234496230719
 20
999.9010429968944
 30
0.0
 10
867.4307291966938
 20
1010.715176197091
 30
0.0
 10
871.2708319646389
 20
1016.421161184093
 30
0.0
 10
881.5962402937957
 20
1033.940626191808
 30
0.0
 10
886.9879917787576
 20
1046.239735756278
 30
0.0
 10
891.6752972727984
 20
1062.465839100064
 30
0.0
 10
892.5089208347954
 20
1065.754176484076
 30
0.0
 10
893.9581292907836
 20
1072.421387983345
 30
0.0
 10
894.5731757563901
 20
1075.80441722377
 30
0.0
 10
896.0521478275139
 20
1085.910664507722
 30
0.0
 10
896.5653380894715
 20
1092.650058217326
 30
0.0
 10
896.6637296959518
 20
1106.132566141769
 30
0.0
 10
896.2487806008144
 20
1112.875680959752
 30
0.0
 10
894.9176353950652
 20
1122.993194602436
 30
0.0
 10
894.3526464538825
 20
1126.379298681302
 30
0.0
 10
892.9961541092486
 20
1133.080512493526
 30
0.0
 10
892.2065871903591
 20
1136.391533605448
 30
0.0
 10
889.516715245331
 20
1146.210388072216
 30
0.0
 10
887.296584574121
 20
1152.604491034908
 30
0.0
 10
883.3570693168028
 20
1161.978970805184
 30
0.0
 10
881.9421814911325
 20
1165.067627034721
 30
0.0
 10
878.9111498282601
 20
1171.173372608941
 30
0.0
 10
877.2894801672671
 20
1174.198902333714
 30
0.0
 10
868.7739943753727
 20
1188.990796630245
 30
0.0
 10
860.6529122058067
 20
1199.837982860455
 30
0.0
 10
846.7613074606277
 20
1214.819992420181
 30
0.0
 10
841.8360191169256
 20
1219.599044346795
 30
0.0
 10
831.6306279968735
 20
1228.569898454448
 30
0.0
 10
826.3276578351097
 20
1232.78657070779
 30
0.0
 10
815.3502600612359
 20
1240.72144475397
 30
0.0
 10
809.6760379668972
 20
1244.439922337582
 30
0.0
 10
797.97140752445
 20
1251.398899944315
 30
0.0
 10
791.9354988540886
 20
1254.637959924989
 30
0.0
 10
773.601399829074
 20
1263.519677275715
 30
0.0
 10
760.9861436368649
 20
1268.396666660446
 30
0.0
 10
741.520754968764
 20
1274.269029681913
 30
0.0
 10
734.9355922448179
 20
1275.986161979823
 30
0.0
 10
721.6090535643588
 20
1278.934922369874
 30
0.0
 10
714.9287135586318
 20
1280.153360673351
 30
0.0
 10
694.8385546040164
 20
1283.071931454036
 30
0.0
 10
681.3802564589854
 20
1284.045211356946
 30
0.0
 10
661.0971955596533
 20
1284.071587417827
 30
0.0
 10
654.3201090914636
 20
1283.839498053964
 30
0.0
 10
640.7331382128858
 20
1282.883577081826
 30
0.0
 10
633.9447466505122
 20
1282.159266016407
 30
0.0
 10
613.8408691375223
 20
1279.275557151055
 30
0.0
 10
600.6902245236768
 20
1276.404080801429
 30
0.0
 10
581.351489004793
 20
1270.638251188381
 30
0.0
 10
574.9704037722313
 20
1268.470864892958
 30
0.0
 10
562.3454318061374
 20
1263.619295885692
 30
0.0
 10
556.0888886503396
 20
1260.929821684046
 30
0.0
 10
537.6213478558662
 20
1252.063298589718
 30
0.0
 10
525.9513149768126
 20
1245.212316015952
 30
0.0
 10
509.4798170808138
 20
1233.421795894323
 30
0.0
 10
504.1628715814252
 20
1229.237384100245
 30
0.0
 10
493.9074167759103
 20
1220.314190510837
 30
0.0
 10
488.9475586266236
 20
1215.55055505338
 30
0.0
 10
474.9905564612524
 20
1200.658783206659
 30
0.0
 10
466.8234132186932
 20
1189.879095563909
 30
0.0
 10
456.5197937106945
 20
1172.251474471682
 30
0.0
 10
453.4053540134392
 20
1166.096313885391
 30
0.0
 10
448.0611803520839
 20
1153.617960247108
 30
0.0
 10
445.8058176337976
 20
1147.258719998521
 30
0.0
 10
442.1485728727728
 20
1134.294341042812
 30
0.0
 10
440.7467565892062
 20
1127.689183389649
 30
0.0
 10
438.8495523505966
 20
1114.21771474366
 30
0.0
 10
438.3595556066987
 20
1107.299576307651
 30
0.0
 10
438.3595551230788
 20
1100.459123870209
 30
0.0
  0
CIRCLE
  5
51
330
1F
100
AcDbEntity
  8
WIND
  6
Continuous
 62
     7
100
AcDbCircle
 10
667.4889927221
 20
1100.4591135269
 30
0.0
 40
25.0
  0
CIRCLE
  5
52
330
1F
100
AcDbEntity
  8
WIND
  6
Continuous
 62
     7
100
AcDbCircle
 10
667.4889927221
 20
1100.4591135269
 30
0.0
 40
40.0
  0
CIRCLE
  5
53
330
1F
100
AcDbEntity
  8
WIND
  6
HIDDEN2
 62
     7
100
AcDbCircle
 10
667.2628128744
 20
900.4591135269
 30
0.0
 40
4.500000000000001
  0
CIRCLE
  5
54
330
1F
100
AcDbEntity
  8
WIND
  6
HIDDEN2
 62
     7
100
AcDbCircle
 10
667.4886411906
 20
1300.4591135269
 30
0.0
 40
4.500000000000001
  0
INSERT
  5
56
330
1F
100
AcDbEntity
  8
Default
100
AcDbBlockReference
  2
SE
 10
0.0
 20
0.0
 30
0.0
  0
TEXT
  5
72
330
1F
100
AcDbEntity
  8
0
  6
Continuous
 62
     7
100
AcDbText
 10
1785.7603626219
 20
785.0769517371
 30
0.0
 40
42.0
  1
SEZIONE A-A
  7
SEACAD_seiso_ttf
 11
1785.7603626219
 21
827.0769517371
 31
0.0
100
AcDbText
 73
     3
  0
LINE
  5
73
330
1F
100
AcDbEntity
  8
WIND
  6
Continuous
 62
     7
100
AcDbLine
 10
1642.6102281089
 20
1295.9591135269
 30
0.0
 11
1602.6102281089
 21
1295.9591135493
 31
0.0
  0
LINE
  5
74
330
1F
100
AcDbEntity
  8
WIND
  6
Continuous
 62
     7
100
AcDbLine
 10
1602.6102281089
 20
1304.9591135044
 30
0.0
 11
1642.6102281089
 21
1304.9591135044
 31
0.0
  0
LINE
  5
75
330
1F
100
AcDbEntity
  8
WIND
  6
Continuous
 62
     7
100
AcDbLine
 10
1655.6102281089
 20
1140.4591135189
 30
0.0
 11
1655.6102281089
 21
1060.4591135349
 31
0.0
  0
ARC
  5
76
330
1F
100
AcDbEntity
  8
WIND
  6
HIDDEN2
 62
     7
100
AcDbCircle
 10
34864.2866857481
 20
1100.459113527
 30
0.0
 40
33193.2208492429
100
AcDbArc
 50
179.6492215895
 51
179.6494822204
  0
ARC
  5
77
330
1F
100
AcDbEntity
  8
WIND
  6
HIDDEN2
 62
     7
100
AcDbCircle
 10
34864.2866857481
 20
1100.459113527
 30
0.0
 40
33193.2208492429
100
AcDbArc
 50
180.350515345
 51
180.3507784105
  0
ARC
  5
78
330
1F
100
AcDbEntity
  8
WIND
  6
Continuous
 62
     7
100
AcDbCircle
 10
-145039.3016311026
 20
1100.4591135284
 30
0.0
 40
146766.0487430683
100
AcDbArc
 50
359.9163802671
 51
359.9164423412
  0
ARC
  5
79
330
1F
100
AcDbEntity
  8
WIND
  6
Continuous
 62
     7
100
AcDbCircle
 10
-145039.3016311026
 20
1100.4591135284
 30
0.0
 40
146766.0487430683
100
AcDbArc
 50
0.0835576674
 51
0.0836197329
  0
LINE
  5
7A
330
1F
100
AcDbEntity
  8
WIND
  6
Continuous
 62
     7
100
AcDbLine
 10
1730.6102281089
 20
1319.5581330395
 30
0.0
 11
1730.6102281089
 21
881.3600940143
 31
0.0
  0
LINE
  5
7B
330
1F
100
AcDbEntity
  8
WIND
  6
HIDDEN2
 62
     7
100
AcDbLine
 10
1725.6102281089
 20
1325.4591135269
 30
0.0
 11
1725.6102281089
 21
1325.1876348063
 31
0.0
  0
LINE
  5
7C
330
1F
100
AcDbEntity
  8
WIND
  6
HIDDEN2
 62
     7
100
AcDbLine
 10
1725.6102281089
 20
875.7305965525
 30
0.0
 11
1725.6102281089
 21
875.4591135269
 31
0.0
  0
LINE
  5
7D
330
1F
100
AcDbEntity
  8
WIND
  6
HIDDEN2
 62
     7
100
AcDbLine
 10
1612.6102281089
 20
875.4591135269
 30
0.0
 11
1612.6102281089
 21
875.7306079677
 31
0.0
  0
LINE
  5
7E
330
1F
100
AcDbEntity
  8
WIND
  6
HIDDEN2
 62
     7
100
AcDbLine
 10
1612.6102281089
 20
1325.1876214471
 30
0.0
 11
1612.6102281089
 21
1325.4591135269
 31
0.0
  0
LINE
  5
7F
330
1F
100
AcDbEntity
  8
WIND
  6
Continuous
 62
     7
100
AcDbLine
 10
1602.6102281089
 20
929.6856108362
 30
0.0
 11
1602.6102281089
 21
1066.0225187682
 31
0.0
  0
LINE
  5
80
330
1F
100
AcDbEntity
  8
WIND
  6
HIDDEN2
 62
     7
100
AcDbLine
 10
1602.6102281089
 20
1066.0225187682
 30
0.0
 11
1602.6102281089
 21
1134.8734181702
 31
0.0
  0
LINE
  5
81
330
1F
100
AcDbEntity
  8
WIND
  6
Continuous
 62
     7
100
AcDbLine
 10
1602.6102281089
 20
1134.8734181702
 30
0.0
 11
1602.6102281089
 21
1271.2326162175
 31
0.0
  0
LINE
  5
82
330
1F
100
AcDbEntity
  8
WIND
  6
Continuous
 62
     7
100
AcDbLine
 10
1607.6102281089
 20
1262.5723621796
 30
0.0
 11
1607.6102281089
 21
1262.4503757929
 31
0.0
  0
LINE
  5
83
330
1F
100
AcDbEntity
  8
WIND
  6
Continuous
 62
     7
100
AcDbLine
 10
1607.6102281089
 20
938.466877663
 30
0.0
 11
1607.6102281089
 21
938.3458648741
 31
0.0
  0
LINE
  5
84
330
1F
100
AcDbEntity
  8
WIND
  6
HIDDEN2
 62
     7
100
AcDbLine
 10
1627.6102281089
 20
949.8928702579
 30
0.0
 11
1627.6102281089
 21
950.008377341
 31
0.0
  0
LINE
  5
85
330
1F
100
AcDbEntity
  8
WIND
  6
Continuous
 62
     7
100
AcDbLine
 10
1637.6102281089
 20
1233.70484872
 30
0.0
 11
1637.6102281089
 21
1233.704780058
 31
0.0
  0
LINE
  5
86
330
1F
100
AcDbEntity
  8
WIND
  6
HIDDEN2
 62
     7
100
AcDbLine
 10
1637.6102281089
 20
1058.4591135345
 30
0.0
 11
1637.6102281089
 21
1142.4591135192
 31
0.0
  0
LINE
  5
87
330
1F
100
AcDbEntity
  8
WIND
  6
Continuous
 62
     7
100
AcDbLine
 10
1600.6102281089
 20
1125.459113514
 30
0.0
 11
1600.6102281089
 21
1075.4591135397
 31
0.0
  0
LINE
  5
88
330
1F
100
AcDbEntity
  8
WIND
  6
Continuous
 62
     7
100
AcDbLine
 10
1602.6102281089
 20
895.9647610345
 30
0.0
 11
1602.6102281089
 21
904.9534660192
 31
0.0
  0
LINE
  5
89
330
1F
100
AcDbEntity
  8
WIND
  6
Continuous
 62
     7
100
AcDbLine
 10
1602.6102281089
 20
1295.9591135493
 30
0.0
 11
1602.6102281089
 21
1304.9591135044
 31
0.0
  0
SPLINE
  5
8A
330
1F
100
AcDbEntity
  8
WIND
  6
Continuous
 62
     7
100
AcDbSpline
210
0.0
220
0.0
230
1.0
 70
     8
 71
     3
 72
    16
 73
    12
 74
     0
 42
0.0000000004222148
 43
0.0000000001
 40
0.0
 40
0.0
 40
0.0
 40
0.0
 40
0.1249999999999994
 40
0.1249999999999994
 40
0.2499999999999989
 40
0.2499999999999989
 40
0.4999999999999992
 40
0.4999999999999992
 40
0.7499999999999996
 40
0.7499999999999996
 40
1.0
 40
1.0
 40
1.0
 40
1.0
 10
1640.610228108851
 20
1075.459113539698
 30
0.0
 10
1641.589053505142
 20
1075.459113539698
 30
0.0
 10
1642.582668683844
 20
1075.361037729373
 30
0.0
 10
1644.502316943804
 20
1074.97839419929
 30
0.0
 10
1645.437124043079
 20
1074.695323633779
 30
0.0
 10
1648.165228926389
 20
1073.566225024593
 30
0.0
 10
1649.815448719221
 20
1072.466505835939
 30
0.0
 10
1652.613736435896
 20
1069.669398229795
 30
0.0
 10
1653.724458282734
 20
1067.997865691408
 30
0.0
 10
1655.217823501006
 20
1064.387723208695
 30
0.0
 10
1655.610228108851
 20
1062.418383500566
 30
0.0
 10
1655.610228108851
 20
1060.459113534887
 30
0.0
  0
LINE
  5
8B
330
1F
100
AcDbEntity
  8
WIND
  6
Continuous
 62
     7
100
AcDbLine
 10
1655.6102281089
 20
1060.4591135349
 30
0.0
 11
1655.6102281089
 21
916.8551915824
 31
0.0
  0
LINE
  5
8C
330
1F
100
AcDbEntity
  8
WIND
  6
Continuous
 62
     7
100
AcDbLine
 10
1640.6102281089
 20
1075.4591135397
 30
0.0
 11
1600.6102281089
 21
1075.4591135397
 31
0.0
  0
SPLINE
  5
8D
330
1F
100
AcDbEntity
  8
WIND
  6
Continuous
 62
     7
100
AcDbSpline
210
0.0
220
0.0
230
1.0
 70
     8
 71
     3
 72
    14
 73
    10
 74
     0
 42
0.0000000003622567
 43
0.0000000001
 40
0.0
 40
0.0
 40
0.0
 40
0.0
 40
0.25
 40
0.25
 40
0.5
 40
0.5
 40
0.75
 40
0.75
 40
1.0
 40
1.0
 40
1.0
 40
1.0
 10
1671.687905406083
 20
897.2435780684793
 30
0.0
 10
1669.420977738446
 20
897.6969636020087
 30
0.0
 10
1667.291302379344
 20
898.52137056596
 30
0.0
 10
1663.331854523895
 20
900.899783080471
 30
0.0
 10
1661.600889400923
 20
902.3962360647224
 30
0.0
 10
1658.676752625418
 20
905.9657299911773
 30
0.0
 10
1657.548654732731
 20
907.9619349218885
 30
0.0
 10
1655.999399708089
 20
912.3026256810813
 30
0.0
 10
1655.610228108851
 20
914.5433698997333
 30
0.0
 10
1655.610228108851
 20
916.8551915823697
 30
0.0
  0
LINE
  5
8E
330
1F
100
AcDbEntity
  8
WIND
  6
Continuous
 62
     7
100
AcDbLine
 10
1726.5908087845
 20
886.2629973927
 30
0.0
 11
1671.6879054061
 21
897.2435780685
 31
0.0
  0
LINE
  5
8F
330
1F
100
AcDbEntity
  8
WIND
  6
Continuous
 62
     7
100
AcDbLine
 10
1600.6102281089
 20
1069.4591135372
 30
0.0
 11
1600.6102281089
 21
1075.4591135397
 31
0.0
  0
SPLINE
  5
90
330
1F
100
AcDbEntity
  8
WIND
  6
Continuous
 62
     7
100
AcDbSpline
210
0.0
220
0.0
230
1.0
 70
     8
 71
     3
 72
    20
 73
    16
 74
     0
 42
0.0000000015870964
 43
0.0000000001
 40
0.0
 40
0.0
 40
0.0
 40
0.0
 40
0.1249999999999953
 40
0.1249999999999953
 40
0.2499999999999906
 40
0.2499999999999906
 40
0.4999999999999922
 40
0.4999999999999922
 40
0.6249999999999941
 40
0.6249999999999941
 40
0.7499999999999961
 40
0.7499999999999961
 40
0.874999999999998
 40
0.874999999999998
 40
1.0
 40
1.0
 40
1.0
 40
1.0
 10
1604.610228108851
 20
1065.459113536032
 30
0.0
 10
1604.348933052207
 20
1065.459113536032
 30
0.0
 10
1604.089790369498
 20
1065.484472385724
 30
0.0
 10
1603.575843143011
 20
1065.58630119143
 30
0.0
 10
1603.321911426626
 20
1065.663314915587
 30
0.0
 10
1602.599830480876
 20
1065.962016233866
 30
0.0
 10
1602.154144234647
 20
1066.258206029313
 30
0.0
 10
1601.594848851107
 20
1066.81770725409
 30
0.0
 10
1601.428731455935
 20
1067.020696954736
 30
0.0
 10
1601.139464645494
 20
1067.453721465201
 30
0.0
 10
1601.014694930881
 20
1067.686807759878
 30
0.0
 10
1600.813888989959
 20
1068.171971005978
 30
0.0
 10
1600.738409200816
 20
1068.421275499856
 30
0.0
 10
1600.636390607417
 20
1068.933086009336
 30
0.0
 10
1600.610228108851
 20
1069.198042132471
 30
0.0
 10
1600.610228108851
 20
1069.459113537215
 30
0.0
  0
SPLINE
  5
91
330
1F
100
AcDbEntity
  8
WIND
  6
Continuous
 62
     7
100
AcDbSpline
210
0.0
220
0.0
230
1.0
 70
     8
 71
     3
 72
    16
 73
    12
 74
     0
 42
0.0000000014503754
 43
0.0000000001
 40
0.0
 40
0.0
 40
0.0
 40
0.0
 40
0.2500000000000018
 40
0.2500000000000018
 40
0.5000000000000037
 40
0.5000000000000037
 40
0.6249999999999999
 40
0.6249999999999999
 40
0.7499999999999961
 40
0.7499999999999961
 40
1.0
 40
1.0
 40
1.0
 40
1.0
 10
1726.590808784543
 20
886.2629973927379
 30
0.0
 10
1727.157540701452
 20
886.1496510093556
 30
0.0
 10
1727.689959541228
 20
885.9435492683681
 30
0.0
 10
1728.67982150509
 20
885.3489461397407
 30
0.0
 10
1729.112562785833
 20
884.9748328936782
 30
0.0
 10
1729.66083843124
 20
884.3055527824683
 30
0.0
 10
1729.821966512919
 20
884.0697863879568
 30
0.0
 10
1730.10251150942
 20
883.573815539954
 30
0.0
 10
1730.222449891921
 20
883.3121150069383
 30
0.0
 10
1730.512935209042
 20
882.4982354895899
 30
0.0
 10
1730.610228108851
 20
881.9380494349273
 30
0.0
 10
1730.610228108851
 20
881.3600940142683
 30
0.0
  0
LINE
  5
92
330
1F
100
AcDbEntity
  8
WIND
  6
Continuous
 62
     7
100
AcDbLine
 10
1730.6102281089
 20
881.3600940143
 30
0.0
 11
1730.6102281089
 21
880.4591135279
 31
0.0
  0
LINE
  5
93
330
1F
100
AcDbEntity
  8
WIND
  6
Continuous
 62
     7
100
AcDbLine
 10
1604.6102281089
 20
1065.459113536
 30
0.0
 11
1630.6102281089
 21
1065.459113536
 31
0.0
  0
SPLINE
  5
94
330
1F
100
AcDbEntity
  8
WIND
  6
Continuous
 62
     7
100
AcDbSpline
210
0.0
220
0.0
230
1.0
 70
     8
 71
     3
 72
    12
 73
     8
 74
     0
 42
0.0000000008954075
 43
0.0000000001
 40
0.0
 40
0.0
 40
0.0
 40
0.0
 40
0.4999999999999993
 40
0.4999999999999993
 40
0.7499999999999997
 40
0.7499999999999997
 40
1.0
 40
1.0
 40
1.0
 40
1.0
 10
1630.610228108851
 20
1065.459113536032
 30
0.0
 10
1632.435346250938
 20
1065.459113536032
 30
0.0
 10
1634.262574400672
 20
1064.703519384376
 30
0.0
 10
1636.200799669941
 20
1062.769399961997
 30
0.0
 10
1636.728468006269
 20
1061.981252961695
 30
0.0
 10
1637.428533616524
 20
1060.28915057985
 30
0.0
 10
1637.610228108851
 20
1059.371202294173
 30
0.0
 10
1637.610228108851
 20
1058.459113534505
 30
0.0
  0
SPLINE
  5
95
330
1F
100
AcDbEntity
  8
WIND
  6
Continuous
 62
     7
100
AcDbSpline
210
0.0
220
0.0
230
1.0
 70
     8
 71
     3
 72
    10
 73
     6
 74
     0
 42
0.0000000012417327
 43
0.0000000001
 40
0.0
 40
0.0
 40
0.0
 40
0.0
 40
0.5
 40
0.5
 40
1.0
 40
1.0
 40
1.0
 40
1.0
 10
1730.610228108851
 20
880.459113527859
 30
0.0
 10
1730.610228108851
 20
879.1385709460426
 30
0.0
 10
1730.068778227906
 20
877.8472555764201
 30
0.0
 10
1728.225273259418
 20
876.0024320288959
 30
0.0
 10
1726.930770690667
 20
875.4591135278438
 30
0.0
 10
1725.610228108851
 20
875.4591135278439
 30
0.0
  0
LINE
  5
96
330
1F
100
AcDbEntity
  8
WIND
  6
Continuous
 62
     7
100
AcDbLine
 10
1637.6102281089
 20
967.2133783337
 30
0.0
 11
1637.6102281089
 21
1058.4591135345
 31
0.0
  0
LINE
  5
97
330
1F
100
AcDbEntity
  8
WIND
  6
Continuous
 62
     7
100
AcDbLine
 10
1725.6102281089
 20
875.4591135278
 30
0.0
 11
1612.6102281089
 21
875.4591135278
 31
0.0
  0
SPLINE
  5
98
330
1F
100
AcDbEntity
  8
WIND
  6
Continuous
 62
     7
100
AcDbSpline
210
0.0
220
0.0
230
1.0
 70
     8
 71
     3
 72
    14
 73
    10
 74
     0
 42
0.0000000004761061
 43
0.0000000001
 40
0.0
 40
0.0
 40
0.0
 40
0.0
 40
0.25
 40
0.25
 40
0.5
 40
0.5
 40
0.75
 40
0.75
 40
1.0
 40
1.0
 40
1.0
 40
1.0
 10
1637.610228108851
 20
967.2133783337384
 30
0.0
 10
1637.610228108851
 20
965.4499826428515
 30
0.0
 10
1637.381008985666
 20
963.7256236299597
 30
0.0
 10
1636.477634433635
 20
960.3526795407091
 30
0.0
 10
1635.797434787576
 20
958.7134726799411
 30
0.0
 10
1634.057861144517
 20
955.7025898975396
 30
0.0
 10
1632.97186320832
 20
954.2889821987661
 30
0.0
 10
1630.512517091683
 20
951.8331706827594
 30
0.0
 10
1629.137373574081
 20
950.7745681033931
 30
0.0
 10
1627.610228108851
 20
949.8928702579458
 30
0.0
  0
SPLINE
  5
99
330
1F
100
AcDbEntity
  8
WIND
  6
Continuous
 62
     7
100
AcDbSpline
210
0.0
220
0.0
230
1.0
 70
     8
 71
     3
 72
    12
 73
     8
 74
     0
 42
0.0000000006266558
 43
0.0000000001
 40
0.0
 40
0.0
 40
0.0
 40
0.0
 40
0.2500000000000009
 40
0.2500000000000009
 40
0.5000000000000019
 40
0.5000000000000019
 40
1.0
 40
1.0
 40
1.0
 40
1.0
 10
1612.610228108851
 20
875.4591135278439
 30
0.0
 10
1611.289685527035
 20
875.4591135278438
 30
0.0
 10
1609.993921332928
 20
875.7189089119696
 30
0.0
 10
1607.572965741826
 20
876.721686277758
 30
0.0
 10
1606.464100432217
 20
877.4637657739934
 30
0.0
 10
1603.696865110944
 20
880.2290232267387
 30
0.0
 10
1602.610228108851
 20
882.8180283642421
 30
0.0
 10
1602.610228108851
 20
885.4591135278745
 30
0.0
  0
LINE
  5
9A
330
1F
100
AcDbEntity
  8
WIND
  6
Continuous
 62
     7
100
AcDbLine
 10
1602.6102281089
 20
895.9647610345
 30
0.0
 11
1602.6102281089
 21
885.4591135279
 31
0.0
  0
LINE
  5
9B
330
1F
100
AcDbEntity
  8
WIND
  6
Continuous
 62
     7
100
AcDbLine
 10
1627.6102281089
 20
949.8928702579
 30
0.0
 11
1607.6102281089
 21
938.3458648741
 31
0.0
  0
SPLINE
  5
9C
330
1F
100
AcDbEntity
  8
WIND
  6
Continuous
 62
     7
100
AcDbSpline
210
0.0
220
0.0
230
1.0
 70
     8
 71
     3
 72
    18
 73
    14
 74
     0
 42
0.0000000009532206
 43
0.0000000001
 40
0.0
 40
0.0
 40
0.0
 40
0.0
 40
0.2500000000000023
 40
0.2500000000000023
 40
0.3750000000000023
 40
0.3750000000000023
 40
0.5000000000000024
 40
0.5000000000000024
 40
0.6250000000000026
 40
0.6250000000000026
 40
0.7500000000000027
 40
0.7500000000000027
 40
1.0
 40
1.0
 40
1.0
 40
1.0
 10
1602.610228108851
 20
929.685610836205
 30
0.0
 10
1602.610228108851
 20
930.5673086816478
 30
0.0
 10
1602.724837670444
 20
931.4294881880929
 30
0.0
 10
1603.063603127456
 20
932.6943422215608
 30
0.0
 10
1603.206083722536
 20
933.1139282689967
 30
0.0
 10
1603.541309504829
 20
933.9218836570151
 30
0.0
 10
1603.734071474872
 20
934.3119240108996
 30
0.0
 10
1604.168964885637
 20
935.0646447064989
 30
0.0
 10
1604.411093294091
 20
935.4273267286636
 30
0.0
 10
1604.946362052315
 20
936.124420521844
 30
0.0
 10
1605.236828823698
 20
936.454785343185
 30
0.0
 10
1606.159083617436
 20
937.3757146616862
 30
0.0
 10
1606.846655376237
 20
937.9050159513687
 30
0.0
 10
1607.610228108851
 20
938.3458648740917
 30
0.0
  0
LINE
  5
9D
330
1F
100
AcDbEntity
  8
WIND
  6
Continuous
 62
     7
100
AcDbLine
 10
1642.6102281089
 20
895.9647610345
 30
0.0
 11
1602.6102281089
 21
895.9647610345
 31
0.0
  0
LINE
  5
9E
330
1F
100
AcDbEntity
  8
WIND
  6
Continuous
 62
     7
100
AcDbLine
 10
1602.6102281089
 20
929.6856108362
 30
0.0
 11
1602.6102281089
 21
904.9534660192
 31
0.0
  0
LINE
  5
9F
330
1F
100
AcDbEntity
  8
WIND
  6
Continuous
 62
     7
100
AcDbLine
 10
1642.6102281089
 20
904.9534660192
 30
0.0
 11
1642.6102281089
 21
895.9647610345
 31
0.0
  0
LINE
  5
A0
330
1F
100
AcDbEntity
  8
WIND
  6
Continuous
 62
     7
100
AcDbLine
 10
1602.6102281089
 20
904.9534660192
 30
0.0
 11
1642.6102281089
 21
904.9534660192
 31
0.0
  0
LINE
  5
A1
330
1F
100
AcDbEntity
  8
WIND
  6
Continuous
 62
     7
100
AcDbLine
 10
1600.6102281089
 20
1125.459113514
 30
0.0
 11
1600.6102281089
 21
1131.4591135165
 31
0.0
  0
LINE
  5
A2
330
1F
100
AcDbEntity
  8
WIND
  6
Continuous
 62
     7
100
AcDbLine
 10
1600.6102281089
 20
1125.459113514
 30
0.0
 11
1640.6102281089
 21
1125.459113514
 31
0.0
  0
SPLINE
  5
A3
330
1F
100
AcDbEntity
  8
WIND
  6
Continuous
 62
     7
100
AcDbSpline
210
0.0
220
0.0
230
1.0
 70
     8
 71
     3
 72
    22
 73
    18
 74
     0
 42
0.0000000015890033
 43
0.0000000001
 40
0.0
 40
0.0
 40
0.0
 40
0.0
 40
0.125
 40
0.125
 40
0.25
 40
0.25
 40
0.375
 40
0.375
 40
0.5
 40
0.5
 40
0.625
 40
0.625
 40
0.75
 40
0.75
 40
0.875
 40
0.875
 40
1.0
 40
1.0
 40
1.0
 40
1.0
 10
1600.610228108851
 20
1131.459113516524
 30
0.0
 10
1600.610228108851
 20
1131.719806555379
 30
0.0
 10
1600.636238318846
 20
1131.984416958836
 30
0.0
 10
1600.738608120505
 20
1132.497909561915
 30
0.0
 10
1600.814257368553
 20
1132.747165297553
 30
0.0
 10
1601.014412502907
 20
1133.230717699398
 30
0.0
 10
1601.139896080439
 20
1133.465300313566
 30
0.0
 10
1601.429713192812
 20
1133.898850125681
 30
0.0
 10
1601.594977335808
 20
1134.100643074122
 30
0.0
 10
1601.967504173901
 20
1134.473317529671
 30
0.0
 10
1602.170850658579
 20
1134.639883063257
 30
0.0
 10
1602.60399092708
 20
1134.929397312685
 30
0.0
 10
1602.837033311836
 20
1135.054222673044
 30
0.0
 10
1603.322519448381
 20
1135.25527421413
 30
0.0
 10
1603.571949642548
 20
1135.330820340589
 30
0.0
 10
1604.083925381856
 20
1135.432920424907
 30
0.0
 10
1604.34899610534
 20
1135.459113517706
 30
0.0
 10
1604.610228108851
 20
1135.459113517706
 30
0.0
  0
SPLINE
  5
A4
330
1F
100
AcDbEntity
  8
WIND
  6
Continuous
 62
     7
100
AcDbSpline
210
0.0
220
0.0
230
1.0
 70
     8
 71
     3
 72
    16
 73
    12
 74
     0
 42
0.0000000004222341
 43
0.0000000001
 40
0.0
 40
0.0
 40
0.0
 40
0.0
 40
0.2499999999999999
 40
0.2499999999999999
 40
0.4999999999999998
 40
0.4999999999999998
 40
0.75
 40
0.75
 40
0.875
 40
0.875
 40
1.0
 40
1.0
 40
1.0
 40
1.0
 10
1655.610228108851
 20
1140.459113518851
 30
0.0
 10
1655.610228108851
 20
1138.50362979534
 30
0.0
 10
1655.217789459886
 20
1136.53072043793
 30
0.0
 10
1653.725163045672
 20
1132.921766343193
 30
0.0
 10
1652.60958391258
 20
1131.248210557323
 30
0.0
 10
1649.846556167079
 20
1128.479317314002
 30
0.0
 10
1648.157669738071
 20
1127.348599449637
 30
0.0
 10
1645.438219482154
 20
1126.223494003839
 30
0.0
 10
1644.503894672162
 20
1125.940094858616
 30
0.0
 10
1642.579546778432
 20
1125.556619561484
 30
0.0
 10
1641.58746606561
 20
1125.459113514041
 30
0.0
 10
1640.610228108851
 20
1125.459113514041
 30
0.0
  0
LINE
  5
A5
330
1F
100
AcDbEntity
  8
WIND
  6
Continuous
 62
     7
100
AcDbLine
 10
1655.6102281089
 20
1284.0630354714
 30
0.0
 11
1655.6102281089
 21
1140.4591135189
 31
0.0
  0
LINE
  5
A6
330
1F
100
AcDbEntity
  8
WIND
  6
Continuous
 62
     7
100
AcDbLine
 10
1630.6102281089
 20
1135.4591135177
 30
0.0
 11
1604.6102281089
 21
1135.4591135177
 31
0.0
  0
SPLINE
  5
A7
330
1F
100
AcDbEntity
  8
WIND
  6
Continuous
 62
     7
100
AcDbSpline
210
0.0
220
0.0
230
1.0
 70
     8
 71
     3
 72
    14
 73
    10
 74
     0
 42
0.0000000009036594
 43
0.0000000001
 40
0.0
 40
0.0
 40
0.0
 40
0.0
 40
0.25
 40
0.25
 40
0.5
 40
0.5
 40
0.75
 40
0.75
 40
1.0
 40
1.0
 40
1.0
 40
1.0
 10
1637.610228108851
 20
1142.459113519233
 30
0.0
 10
1637.610228108851
 20
1141.54714295621
 30
0.0
 10
1637.428447385
 20
1140.628895904361
 30
0.0
 10
1636.72861650738
 20
1138.937305173537
 30
0.0
 10
1636.214040460147
 20
1138.164176079416
 30
0.0
 10
1634.911557079854
 20
1136.86020562846
 30
0.0
 10
1634.14298080466
 20
1136.346112682574
 30
0.0
 10
1632.440616422247
 20
1135.640110698791
 30
0.0
 10
1631.522637395573
 20
1135.459113517706
 30
0.0
 10
1630.610228108851
 20
1135.459113517706
 30
0.0
  0
SPLINE
  5
A8
330
1F
100
AcDbEntity
  8
WIND
  6
Continuous
 62
     7
100
AcDbSpline
210
0.0
220
0.0
230
1.0
 70
     8
 71
     3
 72
    14
 73
    10
 74
     0
 42
0.0000000003622567
 43
0.0000000001
 40
0.0
 40
0.0
 40
0.0
 40
0.0
 40
0.25
 40
0.25
 40
0.5
 40
0.5
 40
0.75
 40
0.75
 40
1.0
 40
1.0
 40
1.0
 40
1.0
 10
1655.610228108851
 20
1284.063035471368
 30
0.0
 10
1655.610228108851
 20
1286.374857154005
 30
0.0
 10
1656.000961946074
 20
1288.624855164186
 30
0.0
 10
1657.556675685915
 20
1292.973858287763
 30
0.0
 10
1658.684598374363
 20
1294.964687813335
 30
0.0
 10
1661.611304737596
 20
1298.532075181747
 30
0.0
 10
1663.347506518587
 20
1300.029754171564
 30
0.0
 10
1667.30007008842
 20
1302.400203205987
 30
0.0
 10
1669.420977738446
 20
1303.221263451729
 30
0.0
 10
1671.687905406083
 20
1303.674648985259
 30
0.0
  0
LINE
  5
A9
330
1F
100
AcDbEntity
  8
WIND
  6
Continuous
 62
     7
100
AcDbLine
 10
1637.6102281089
 20
1142.4591135192
 30
0.0
 11
1637.6102281089
 21
1233.70484872
 31
0.0
  0
LINE
  5
AA
330
1F
100
AcDbEntity
  8
WIND
  6
Continuous
 62
     7
100
AcDbLine
 10
1671.6879054061
 20
1303.6746489853
 30
0.0
 11
1726.5908087845
 21
1314.655229661
 31
0.0
  0
SPLINE
  5
AB
330
1F
100
AcDbEntity
  8
WIND
  6
Continuous
 62
     7
100
AcDbSpline
210
0.0
220
0.0
230
1.0
 70
     8
 71
     3
 72
    14
 73
    10
 74
     0
 42
0.0000000004761061
 43
0.0000000001
 40
0.0
 40
0.0
 40
0.0
 40
0.0
 40
0.25
 40
0.25
 40
0.5
 40
0.5
 40
0.75
 40
0.75
 40
1.0
 40
1.0
 40
1.0
 40
1.0
 10
1627.610228108851
 20
1251.025356795792
 30
0.0
 10
1629.137373574082
 20
1250.143658950345
 30
0.0
 10
1630.516102722893
 20
1249.082969860181
 30
0.0
 10
1632.985470713701
 20
1246.614152504351
 30
0.0
 10
1634.064965674144
 20
1245.205478900828
 30
0.0
 10
1635.802679829972
 20
1242.193522542972
 30
0.0
 10
1636.483901039986
 20
1240.546216892376
 30
0.0
 10
1637.381023141417
 20
1237.188454920663
 30
0.0
 10
1637.610228108851
 20
1235.468244410887
 30
0.0
 10
1637.610228108851
 20
1233.70484872
 30
0.0
  0
SPLINE
  5
AC
330
1F
100
AcDbEntity
  8
WIND
  6
Continuous
 62
     7
100
AcDbSpline
210
0.0
220
0.0
230
1.0
 70
     8
 71
     3
 72
    16
 73
    12
 74
     0
 42
0.0000000014503754
 43
0.0000000001
 40
0.0
 40
0.0
 40
0.0
 40
0.0
 40
0.2500000000000016
 40
0.2500000000000016
 40
0.5000000000000031
 40
0.5000000000000031
 40
0.6250000000000039
 40
0.6250000000000039
 40
0.7500000000000047
 40
0.7500000000000047
 40
1.0
 40
1.0
 40
1.0
 40
1.0
 10
1730.610228108851
 20
1319.55813303947
 30
0.0
 10
1730.610228108851
 20
1318.980177618811
 30
0.0
 10
1730.512544649546
 20
1318.417678116266
 30
0.0
 10
1730.123616214585
 20
1317.330427335372
 30
0.0
 10
1729.841635542473
 20
1316.832719953979
 30
0.0
 10
1729.292878099367
 20
1316.163834822403
 30
0.0
 10
1729.093289945573
 20
1315.959598145109
 30
0.0
 10
1728.661969916763
 20
1315.587233257025
 30
0.0
 10
1728.428873283302
 20
1315.418300299772
 30
0.0
 10
1727.687767613959
 20
1314.973841105818
 30
0.0
 10
1727.157540701452
 20
1314.768576044382
 30
0.0
 10
1726.590808784543
 20
1314.655229661
 30
0.0
  0
LINE
  5
AD
330
1F
100
AcDbEntity
  8
WIND
  6
Continuous
 62
     7
100
AcDbLine
 10
1730.6102281089
 20
1320.4591135259
 30
0.0
 11
1730.6102281089
 21
1319.5581330395
 31
0.0
  0
LINE
  5
AE
330
1F
100
AcDbEntity
  8
WIND
  6
Continuous
 62
     7
100
AcDbLine
 10
1607.6102281089
 20
1262.5723621796
 30
0.0
 11
1627.6102281089
 21
1251.0253567958
 31
0.0
  0
SPLINE
  5
AF
330
1F
100
AcDbEntity
  8
WIND
  6
Continuous
 62
     7
100
AcDbSpline
210
0.0
220
0.0
230
1.0
 70
     8
 71
     3
 72
    18
 73
    14
 74
     0
 42
0.0000000009532206
 43
0.0000000001
 40
0.0
 40
0.0
 40
0.0
 40
0.0
 40
0.2500000000000028
 40
0.2500000000000028
 40
0.3750000000000014
 40
0.3750000000000014
 40
0.5
 40
0.5
 40
0.6249999999999986
 40
0.6249999999999986
 40
0.7499999999999972
 40
0.7499999999999972
 40
1.0
 40
1.0
 40
1.0
 40
1.0
 10
1607.610228108851
 20
1262.572362179646
 30
0.0
 10
1606.846655376237
 20
1263.013211102369
 30
0.0
 10
1606.157290801831
 20
1263.543555647451
 30
0.0
 10
1605.231277805279
 20
1264.469362155886
 30
0.0
 10
1604.939145926667
 20
1264.802546994491
 30
0.0
 10
1604.407048926669
 20
1265.496838731972
 30
0.0
 10
1604.165645056727
 20
1265.858795671856
 30
0.0
 10
1603.73121651777
 20
1266.611784761319
 30
0.0
 10
1603.538188877309
 20
1267.002815125102
 30
0.0
 10
1603.20212232271
 20
1267.814918364168
 30
0.0
 10
1603.061251380606
 20
1268.231652377812
 30
0.0
 10
1602.724830592569
 20
1269.490813117203
 30
0.0
 10
1602.610228108851
 20
1270.35091837209
 30
0.0
 10
1602.610228108851
 20
1271.232616217533
 30
0.0
  0
SPLINE
  5
B0
330
1F
100
AcDbEntity
  8
WIND
  6
Continuous
 62
     7
100
AcDbSpline
210
0.0
220
0.0
230
1.0
 70
     8
 71
     3
 72
    10
 73
     6
 74
     0
 42
0.0000000012417327
 43
0.0000000001
 40
0.0
 40
0.0
 40
0.0
 40
0.0
 40
0.5000000000000001
 40
0.5000000000000001
 40
1.0
 40
1.0
 40
1.0
 40
1.0
 10
1725.610228108851
 20
1325.459113525894
 30
0.0
 10
1726.930770690667
 20
1325.459113525894
 30
0.0
 10
1728.222086060289
 20
1324.917663644944
 30
0.0
 10
1730.066909607805
 20
1323.074158676447
 30
0.0
 10
1730.610228108851
 20
1321.779656107695
 30
0.0
 10
1730.610228108851
 20
1320.459113525879
 30
0.0
  0
LINE
  5
B1
330
1F
100
AcDbEntity
  8
WIND
  6
Continuous
 62
     7
100
AcDbLine
 10
1602.6102281089
 20
1295.9591135493
 30
0.0
 11
1602.6102281089
 21
1271.2326162175
 31
0.0
  0
LINE
  5
B2
330
1F
100
AcDbEntity
  8
WIND
  6
Continuous
 62
     7
100
AcDbLine
 10
1612.6102281089
 20
1325.4591135259
 30
0.0
 11
1725.6102281089
 21
1325.4591135259
 31
0.0
  0
SPLINE
  5
B3
330
1F
100
AcDbEntity
  8
WIND
  6
Continuous
 62
     7
100
AcDbSpline
210
0.0
220
0.0
230
1.0
 70
     8
 71
     3
 72
    12
 73
     8
 74
     0
 42
0.0000000006266558
 43
0.0000000001
 40
0.0
 40
0.0
 40
0.0
 40
0.0
 40
0.2499999999999981
 40
0.2499999999999981
 40
0.4999999999999962
 40
0.4999999999999962
 40
1.0
 40
1.0
 40
1.0
 40
1.0
 10
1602.610228108851
 20
1315.459113525864
 30
0.0
 10
1602.610228108851
 20
1316.77965610768
 30
0.0
 10
1602.870023492974
 20
1318.075420301786
 30
0.0
 10
1603.872800858755
 20
1320.496375892892
 30
0.0
 10
1604.614880354985
 20
1321.605241202504
 30
0.0
 10
1607.380137807718
 20
1324.37247652379
 30
0.0
 10
1609.969142945218
 20
1325.459113525894
 30
0.0
 10
1612.610228108851
 20
1325.459113525894
 30
0.0
  0
LINE
  5
B4
330
1F
100
AcDbEntity
  8
WIND
  6
Continuous
 62
     7
100
AcDbLine
 10
1602.6102281089
 20
1315.4591135259
 30
0.0
 11
1602.6102281089
 21
1304.9591135044
 31
0.0
  0
LINE
  5
B5
330
1F
100
AcDbEntity
  8
WIND
  6
Continuous
 62
     7
100
AcDbLine
 10
1642.6102281089
 20
1304.9591135044
 30
0.0
 11
1642.6102281089
 21
1295.9591135269
 31
0.0
  0
LINE
  5
B6
330
1F
100
AcDbEntity
  8
WIND
  6
Continuous
 62
     7
100
AcDbLine
 10
1612.6102281089
 20
875.7306050961
 30
0.0
 11
1725.6102281089
 21
875.7306050961
 31
0.0
  0
LINE
  5
B7
330
1F
100
AcDbEntity
  8
WIND
  6
Continuous
 62
     7
100
AcDbLine
 10
1725.6102281089
 20
1325.1876219577
 30
0.0
 11
1612.6102281089
 21
1325.1876219577
 31
0.0
  0
LINE
  5
B8
330
1F
100
AcDbEntity
  8
WIND
  6
HIDDEN2
 62
     7
100
AcDbLine
 10
1671.6836018944
 20
897.3963013141
 30
0.0
 11
1726.5849290726
 21
886.4242411882
 31
0.0
  0
LINE
  5
B9
330
1F
100
AcDbEntity
  8
WIND
  6
HIDDEN2
 62
     7
100
AcDbLine
 10
1726.5897374643
 20
1314.4949468252
 30
0.0
 11
1671.6859579056
 21
1303.5223965897
 31
0.0
  0
LINE
  5
BA
330
1F
100
AcDbEntity
  8
WIND
  6
HIDDEN2
 62
     7
100
AcDbLine
 10
1607.6122028874
 20
938.4686432487
 30
0.0
 11
1627.6194790175
 21
950.0142756429
 31
0.0
  0
LINE
  5
BB
330
1F
100
AcDbEntity
  8
WIND
  6
HIDDEN2
 62
     7
100
AcDbLine
 10
1627.6193182156
 20
1250.904044205
 30
0.0
 11
1607.6217092982
 21
1262.4440979246
 31
0.0
  0
ARC
  5
BC
330
1F
100
AcDbEntity
  8
WIND
  6
Continuous
 62
     7
100
AcDbCircle
 10
1617.6102293733
 20
967.2133924104
 30
0.0
 40
19.9999987355988
100
AcDbArc
 50
300.0009714868
 51
0.0104356664
  0
ARC
  5
BD
330
1F
100
AcDbEntity
  8
WIND
  6
HIDDEN2
 62
     7
100
AcDbCircle
 10
1617.6102342619
 20
1233.7047801872
 30
0.0
 40
19.99999231006861
100
AcDbArc
 50
54.4411229901
 51
59.9978470173
  0
ARC
  5
BE
330
1F
100
AcDbEntity
  8
WIND
  6
HIDDEN2
 62
     7
100
AcDbCircle
 10
1617.6102342619
 20
1233.7047801872
 30
0.0
 40
19.99999231006861
100
AcDbArc
 50
0.0224919811
 51
0.2724210603
  0
LINE
  5
BF
330
1F
100
AcDbEntity
  8
WIND
  6
Continuous
 62
     7
100
AcDbLine
 10
1637.6102281089
 20
1233.7108297961
 30
0.0
 11
1637.6102281089
 21
1233.7126313677
 31
0.0
  0
ARC
  5
C0
330
1F
100
AcDbEntity
  8
WIND
  6
HIDDEN2
 62
     7
100
AcDbCircle
 10
1612.6102273473
 20
929.6856306609
 30
0.0
 40
9.999999048110508
100
AcDbArc
 50
119.9939791352
 51
179.9837620745
  0
HATCH
  5
C1
330
1F
100
AcDbEntity
  8
WIND
  6
Continuous
 62
     7
100
AcDbHatch
 10
0.0
 20
0.0
 30
0.0
210
0.0
220
0.0
230
1.0
  2
LINE
 70
     0
 71
     0
 91
        1
 92
        1
 93
       23
 72
     1
 10
1600.610228108851
 20
1125.459113514041
 11
1640.610228108851
 21
1125.459113514041
 72
     4
 94
        3
 73
     0
 74
     0
 95
       31
 96
       27
 40
0.0
 40
0.0
 40
0.0
 40
0.0
 40
0.0624999999999996
 40
0.0624999999999996
 40
0.1249999999999992
 40
0.1249999999999992
 40
0.25
 40
0.25
 40
0.3125000000000003
 40
0.3125000000000003
 40
0.3750000000000008
 40
0.3750000000000008
 40
0.4375000000000011
 40
0.4375000000000011
 40
0.5000000000000014
 40
0.5000000000000014
 40
0.6250000000000011
 40
0.6250000000000011
 40
0.687500000000001
 40
0.687500000000001
 40
0.7500000000000008
 40
0.8125000000000006
 40
0.8125000000000006
 40
0.8750000000000004
 40
0.8750000000000004
 40
1.0
 40
1.0
 40
1.0
 40
1.0
 10
1640.610228108851
 20
1125.459113514041
 10
1641.098847087231
 20
1125.459113514041
 10
1641.588476570963
 20
1125.482928557698
 10
1642.56981187574
 20
1125.579492639861
 10
1643.060633751864
 20
1125.652488385767
 10
1644.503894672162
 20
1125.940094858616
 10
1645.438219482154
 20
1126.223494003839
 10
1646.797944610112
 20
1126.786046726738
 10
1647.246093089828
 20
1126.997713089773
 10
1648.11735752668
 20
1127.463459881865
 10
1648.539836688044
 20
1127.716902788004
 10
1649.358711588945
 20
1128.264579361398
 10
1649.75626642099
 20
1128.559781869483
 10
1650.519481485613
 20
1129.187431833583
 10
1650.882691571642
 20
1129.517652280247
 10
1651.918826976205
 20
1130.555987246493
 10
1652.538764124673
 20
1131.311323845377
 10
1653.359811833625
 20
1132.54134099666
 10
1653.61458481652
 20
1132.967291510344
 10
1654.076335522458
 20
1133.833055753778
 10
1654.493460480457
 20
1134.717192462115
 10
1654.822648628655
 20
1135.637532842692
 10
1655.107253303524
 20
1136.576228283672
 10
1655.227732405206
 20
1137.057378675366
 10
1655.515552533443
 20
1138.508669729271
 10
1655.610228108851
 20
1139.481371657095
 10
1655.610228108851
 20
1140.459113518851
 72
     1
 10
1655.610228108851
 20
1140.459113518851
 11
1655.610228108851
 21
1284.063035471368
 72
     4
 94
        3
 73
     0
 74
     0
 95
       26
 96
       22
 40
0.0
 40
0.0
 40
0.0
 40
0.0
 40
0.1250000000000019
 40
0.1250000000000019
 40
0.2500000000000038
 40
0.2500000000000038
 40
0.3750000000000058
 40
0.3750000000000058
 40
0.4375000000000071
 40
0.4375000000000071
 40
0.5000000000000084
 40
0.5000000000000084
 40
0.6250000000000078
 40
0.6250000000000078
 40
0.6875000000000066
 40
0.6875000000000066
 40
0.7500000000000052
 40
0.7500000000000052
 40
0.8750000000000027
 40
0.8750000000000027
 40
1.0
 40
1.0
 40
1.0
 40
1.0
 10
1655.610228108851
 20
1284.063035471368
 10
1655.610228108851
 20
1285.218946312687
 10
1655.709675780235
 20
1286.357920928653
 10
1656.099118551125
 20
1288.603419383831
 10
1656.389890381034
 20
1289.71210594508
 10
1657.167747250955
 20
1291.886607506869
 10
1657.644642904845
 20
1292.925107832324
 10
1658.486804589189
 20
1294.412577081038
 10
1658.78878313913
 20
1294.89661922289
 10
1659.435827809675
 20
1295.840824853624
 10
1659.782113260575
 20
1296.302458076489
 10
1660.879628146788
 20
1297.640228339643
 10
1661.677980761961
 20
1298.45717504882
 10
1662.97194084839
 20
1299.574269713072
 10
1663.41942443451
 20
1299.92847736094
 10
1664.347205007464
 20
1300.600031909522
 10
1664.829717857274
 20
1300.918672559472
 10
1666.311929195962
 20
1301.807590947381
 10
1667.337030153376
 20
1302.307138696967
 10
1669.458288889637
 20
1303.127314916448
 10
1670.554441572265
 20
1303.447956218494
 10
1671.687905406083
 20
1303.674648985259
 72
     1
 10
1671.687905406083
 20
1303.674648985259
 11
1726.590808784543
 21
1314.655229661
 72
     4
 94
        3
 73
     0
 74
     0
 95
       16
 96
       12
 40
0.0
 40
0.0
 40
0.0
 40
0.0
 40
0.2499999999999956
 40
0.2499999999999956
 40
0.3749999999999962
 40
0.3749999999999962
 40
0.499999999999997
 40
0.499999999999997
 40
0.7499999999999984
 40
0.7499999999999984
 40
1.0
 40
1.0
 40
1.0
 40
1.0
 10
1726.590808784543
 20
1314.655229661
 10
1727.157540701452
 20
1314.768576044382
 10
1727.687767613959
 20
1314.973841105818
 10
1728.428873283302
 20
1315.418300299772
 10
1728.661969916763
 20
1315.587233257025
 10
1729.093289945573
 20
1315.959598145109
 10
1729.292878099367
 20
1316.163834822403
 10
1729.841635542473
 20
1316.832719953979
 10
1730.123616214585
 20
1317.330427335372
 10
1730.512544649546
 20
1318.417678116266
 10
1730.610228108851
 20
1318.980177618811
 10
1730.610228108851
 20
1319.55813303947
 72
     1
 10
1730.610228108851
 20
1319.55813303947
 11
1730.610228108851
 21
1320.459113525879
 72
     4
 94
        3
 73
     0
 74
     0
 95
       24
 96
       20
 40
0.0
 40
0.0
 40
0.0
 40
0.0
 40
0.1250000000000009
 40
0.1250000000000009
 40
0.2500000000000017
 40
0.2500000000000017
 40
0.3750000000000024
 40
0.3750000000000024
 40
0.5000000000000032
 40
0.5000000000000032
 40
0.625000000000004
 40
0.625000000000004
 40
0.7500000000000048
 40
0.7500000000000048
 40
0.8125000000000031
 40
0.8125000000000031
 40
0.8750000000000013
 40
0.8750000000000013
 40
1.0
 40
1.0
 40
1.0
 40
1.0
 10
1730.610228108851
 20
1320.459113525879
 10
1730.610228108851
 20
1320.789249171333
 10
1730.577848335521
 20
1321.11578697037
 10
1730.44879109871
 20
1321.761718194338
 10
1730.352740192872
 20
1322.076054495423
 10
1730.103117395343
 20
1322.677190356246
 10
1729.947667644267
 20
1322.968009598261
 10
1729.582077849208
 20
1323.514003190899
 10
1729.375100777486
 20
1323.765473039633
 10
1728.913894890607
 20
1324.226349281757
 10
1728.656617172338
 20
1324.437323045777
 10
1728.113306367656
 20
1324.799762848349
 10
1727.826239843476
 20
1324.953174321661
 10
1727.372310670144
 20
1325.141195077746
 10
1727.216267112963
 20
1325.19699686747
 10
1726.902321401015
 20
1325.292062394386
 10
1726.743986370541
 20
1325.331596617483
 10
1726.264985697378
 20
1325.426737665798
 10
1725.940363754305
 20
1325.459113525894
 10
1725.610228108851
 20
1325.459113525894
 72
     1
 10
1725.610228108851
 20
1325.459113525894
 11
1612.610228108851
 21
1325.459113525894
 72
     4
 94
        3
 73
     0
 74
     0
 95
       29
 96
       25
 40
0.0
 40
0.0
 40
0.0
 40
0.0
 40
0.1249999999999996
 40
0.1249999999999996
 40
0.1875000000000011
 40
0.1875000000000011
 40
0.2500000000000028
 40
0.3125000000000044
 40
0.3125000000000044
 40
0.3750000000000061
 40
0.3750000000000061
 40
0.5000000000000092
 40
0.5000000000000092
 40
0.5625000000000108
 40
0.5625000000000108
 40
0.6250000000000124
 40
0.6250000000000124
 40
0.7500000000000111
 40
0.7500000000000111
 40
0.812500000000007
 40
0.812500000000007
 40
0.8750000000000029
 40
0.8750000000000029
 40
1.0
 40
1.0
 40
1.0
 40
1.0
 10
1612.610228108851
 20
1325.459113525894
 10
1611.949956817943
 20
1325.459113525894
 10
1611.296881219869
 20
1325.394353979234
 10
1610.327984383916
 20
1325.200768124015
 10
1610.00777304741
 20
1325.120070548901
 10
1609.382372078206
 20
1324.929478270329
 10
1608.7691844005
 20
1324.709174320001
 10
1608.180100295201
 20
1324.430232824541
 10
1607.603255186893
 20
1324.121517122737
 10
1607.319439167772
 20
1323.951197699184
 10
1606.500448778817
 20
1323.402813006592
 10
1605.997509081352
 20
1322.988858863147
 10
1605.306194718168
 20
1322.297050032825
 10
1605.086347529807
 20
1322.054549825344
 10
1604.668520181179
 20
1321.544985208682
 10
1604.472589167785
 20
1321.280236250501
 10
1603.928929463931
 20
1320.465270043476
 10
1603.62210651731
 20
1319.891136995115
 10
1603.246065005142
 20
1318.983278648451
 10
1603.134461425695
 20
1318.671191534088
 10
1602.944330371865
 20
1318.043300110191
 10
1602.865261925671
 20
1317.726630049243
 10
1602.674979829042
 20
1316.768628702917
 10
1602.610228108851
 20
1316.119384816772
 10
1602.610228108851
 20
1315.459113525864
 72
     1
 10
1602.610228108851
 20
1315.459113525864
 11
1602.610228108851
 21
1304.959113504433
 72
     1
 10
1602.610228108851
 20
1304.959113504433
 11
1642.610228108851
 21
1304.959113504433
 72
     1
 10
1642.610228108851
 20
1304.959113504433
 11
1642.610228108851
 21
1295.959113526869
 72
     1
 10
1642.610228108851
 20
1295.959113526869
 11
1602.610228108851
 21
1295.959113549305
 72
     1
 10
1602.610228108851
 20
1295.959113549305
 11
1602.610228108851
 21
1271.232616217533
 72
     4
 94
        3
 73
     0
 74
     0
 95
       18
 96
       14
 40
0.0
 40
0.0
 40
0.0
 40
0.0
 40
0.2500000000000028
 40
0.2500000000000028
 40
0.3750000000000014
 40
0.3750000000000014
 40
0.5
 40
0.5
 40
0.6249999999999987
 40
0.6249999999999987
 40
0.7499999999999972
 40
0.7499999999999972
 40
1.0
 40
1.0
 40
1.0
 40
1.0
 10
1602.610228108851
 20
1271.232616217533
 10
1602.610228108851
 20
1270.35091837209
 10
1602.724830592569
 20
1269.490813117203
 10
1603.061251380606
 20
1268.231652377812
 10
1603.20212232271
 20
1267.814918364168
 10
1603.538188877309
 20
1267.002815125102
 10
1603.73121651777
 20
1266.611784761319
 10
1604.165645056727
 20
1265.858795671856
 10
1604.407048926669
 20
1265.496838731972
 10
1604.939145926667
 20
1264.802546994491
 10
1605.231277805279
 20
1264.469362155886
 10
1606.157290801831
 20
1263.543555647451
 10
1606.846655376237
 20
1263.013211102369
 10
1607.610228108851
 20
1262.572362179646
 72
     1
 10
1607.610228108851
 20
1262.572362179646
 11
1627.610228108851
 21
1251.025356795792
 72
     4
 94
        3
 73
     0
 74
     0
 95
       20
 96
       16
 40
0.0
 40
0.0
 40
0.0
 40
0.0
 40
0.2500000000000048
 40
0.2500000000000048
 40
0.3750000000000064
 40
0.3750000000000064
 40
0.5000000000000081
 40
0.5000000000000081
 40
0.6250000000000098
 40
0.6250000000000098
 40
0.6875000000000088
 40
0.6875000000000088
 40
0.7500000000000078
 40
0.7500000000000078
 40
1.0
 40
1.0
 40
1.0
 40
1.0
 10
1627.610228108851
 20
1251.025356795792
 10
1629.137373574081
 20
1250.143658950345
 10
1630.516102722893
 20
1249.082969860181
 10
1632.368128715999
 20
1247.231356843308
 10
1632.952392473222
 20
1246.564987166097
 10
1634.016586473218
 20
1245.176403691133
 10
1634.499394213101
 20
1244.452489811364
 10
1635.368251291015
 20
1242.946511632435
 10
1635.754306571938
 20
1242.16445090487
 10
1636.258406403836
 20
1240.946296046269
 10
1636.41363415593
 20
1240.53297770237
 10
1636.694247497707
 20
1239.704151040839
 10
1636.820321828022
 20
1239.287056152984
 10
1637.381023141417
 20
1237.188454920663
 10
1637.610228108851
 20
1235.468244410886
 10
1637.610228108851
 20
1233.70484872
 72
     1
 10
1637.610228108851
 20
1233.70484872
 11
1637.610228108851
 21
1142.459113519233
 72
     4
 94
        3
 73
     0
 74
     0
 95
       29
 96
       25
 40
0.0
 40
0.0
 40
0.0
 40
0.0
 40
0.0625000000000007
 40
0.0625000000000007
 40
0.1250000000000013
 40
0.1250000000000013
 40
0.2500000000000018
 40
0.2500000000000018
 40
0.3125000000000022
 40
0.3125000000000022
 40
0.3750000000000024
 40
0.3750000000000024
 40
0.500000000000003
 40
0.500000000000003
 40
0.5625000000000027
 40
0.5625000000000027
 40
0.6250000000000023
 40
0.687500000000002
 40
0.687500000000002
 40
0.7500000000000016
 40
0.7500000000000016
 40
0.8750000000000008
 40
0.8750000000000008
 40
1.0
 40
1.0
 40
1.0
 40
1.0
 10
1637.610228108851
 20
1142.459113519233
 10
1637.610228108851
 20
1142.231120878477
 10
1637.599117207058
 20
1142.002692390945
 10
1637.554087206397
 20
1141.544940719898
 10
1637.520015979685
 20
1141.315754214105
 10
1637.385765136267
 20
1140.642013172091
 10
1637.253489665595
 20
1140.205998221655
 10
1636.991053086488
 20
1139.571651697596
 10
1636.892241664772
 20
1139.362452727808
 10
1636.675194516115
 20
1138.956373898052
 10
1636.557457538008
 20
1138.760130481457
 10
1636.177376431206
 20
1138.191220229845
 10
1635.888419615074
 20
1137.838183466677
 10
1635.399988347464
 20
1137.349194547568
 10
1635.228768815922
 20
1137.194001876017
 10
1634.875196260823
 20
1136.90372284508
 10
1634.508981811249
 20
1136.632006103195
 10
1634.117783637499
 20
1136.396973349668
 10
1633.713882221426
 20
1136.180592963184
 10
1633.504594161255
 20
1136.081361938656
 10
1632.86620751785
 20
1135.816611194737
 10
1632.423872577407
 20
1135.682479038443
 10
1631.520427909992
 20
1135.503280178236
 10
1631.066432752212
 20
1135.459113517706
 10
1630.610228108851
 20
1135.459113517706
 72
     1
 10
1630.610228108851
 20
1135.459113517706
 11
1604.610228108851
 21
1135.459113517706
 72
     4
 94
        3
 73
     0
 74
     0
 95
       22
 96
       18
 40
0.0
 40
0.0
 40
0.0
 40
0.0
 40
0.125
 40
0.125
 40
0.25
 40
0.25
 40
0.375
 40
0.375
 40
0.5
 40
0.5
 40
0.625
 40
0.625
 40
0.75
 40
0.75
 40
0.875
 40
0.875
 40
1.0
 40
1.0
 40
1.0
 40
1.0
 10
1604.610228108851
 20
1135.459113517706
 10
1604.34899610534
 20
1135.459113517706
 10
1604.083925381856
 20
1135.432920424907
 10
1603.571949642548
 20
1135.330820340589
 10
1603.322519448381
 20
1135.25527421413
 10
1602.837033311836
 20
1135.054222673044
 10
1602.60399092708
 20
1134.929397312685
 10
1602.170850658579
 20
1134.639883063257
 10
1601.967504173901
 20
1134.473317529671
 10
1601.594977335808
 20
1134.100643074122
 10
1601.429713192812
 20
1133.898850125681
 10
1601.139896080439
 20
1133.465300313566
 10
1601.014412502907
 20
1133.230717699398
 10
1600.814257368553
 20
1132.747165297553
 10
1600.738608120505
 20
1132.497909561915
 10
1600.636238318846
 20
1131.984416958836
 10
1600.610228108851
 20
1131.719806555379
 10
1600.610228108851
 20
1131.459113516524
 72
     1
 10
1600.610228108851
 20
1131.459113516524
 11
1600.610228108851
 21
1125.459113514041
 97
        0
 75
     0
 76
     2
 52
45.0
 41
1.0
 77
     0
 78
     1
 53
45.0
 43
0.0
 44
0.0
 45
-2.245064030267288
 46
2.245064030267288
 79
     0
 98
        0
  0
HATCH
  5
C2
330
1F
100
AcDbEntity
  8
WIND
  6
Continuous
 62
     7
100
AcDbHatch
 10
0.0
 20
0.0
 30
0.0
210
0.0
220
0.0
230
1.0
  2
LINE
 70
     0
 71
     0
 91
        1
 92
        1
 93
       23
 72
     1
 10
1640.610228108851
 20
1075.459113539698
 11
1600.610228108851
 21
1075.459113539698
 72
     1
 10
1600.610228108851
 20
1075.459113539698
 11
1600.610228108851
 21
1069.459113537215
 72
     4
 94
        3
 73
     0
 74
     0
 95
       20
 96
       16
 40
0.0
 40
0.0
 40
0.0
 40
0.0
 40
0.125000000000002
 40
0.125000000000002
 40
0.2500000000000039
 40
0.2500000000000039
 40
0.3750000000000059
 40
0.3750000000000059
 40
0.5000000000000078
 40
0.5000000000000078
 40
0.7500000000000094
 40
0.7500000000000094
 40
0.8750000000000047
 40
0.8750000000000047
 40
1.0
 40
1.0
 40
1.0
 40
1.0
 10
1600.610228108851
 20
1069.459113537215
 10
1600.610228108851
 20
1069.198042132471
 10
1600.636390607417
 20
1068.933086009336
 10
1600.738409200816
 20
1068.421275499856
 10
1600.813888989959
 20
1068.171971005978
 10
1601.014694930881
 20
1067.686807759878
 10
1601.139464645494
 20
1067.453721465201
 10
1601.428731455935
 20
1067.020696954736
 10
1601.594848851107
 20
1066.81770725409
 10
1602.154144234647
 20
1066.258206029313
 10
1602.599830480876
 20
1065.962016233866
 10
1603.321911426626
 20
1065.663314915587
 10
1603.575843143011
 20
1065.58630119143
 10
1604.089790369498
 20
1065.484472385724
 10
1604.348933052207
 20
1065.459113536032
 10
1604.610228108851
 20
1065.459113536032
 72
     1
 10
1604.610228108851
 20
1065.459113536032
 11
1630.610228108851
 21
1065.459113536032
 72
     4
 94
        3
 73
     0
 74
     0
 95
       27
 96
       23
 40
0.0
 40
0.0
 40
0.0
 40
0.0
 40
0.1250000000000032
 40
0.1250000000000032
 40
0.187500000000003
 40
0.187500000000003
 40
0.2500000000000028
 40
0.3125000000000026
 40
0.3125000000000026
 40
0.3750000000000023
 40
0.3750000000000023
 40
0.5000000000000019
 40
0.5000000000000019
 40
0.6250000000000014
 40
0.6250000000000014
 40
0.750000000000001
 40
0.750000000000001
 40
0.8750000000000006
 40
0.8750000000000006
 40
0.9375000000000002
 40
0.9375000000000002
 40
1.0
 40
1.0
 40
1.0
 40
1.0
 10
1630.610228108851
 20
1065.459113536032
 10
1631.066507644373
 20
1065.459113536032
 10
1631.520435210623
 20
1065.414931600805
 10
1632.197704368853
 20
1065.280615540937
 10
1632.422241218404
 20
1065.2243919601
 10
1632.860299090912
 20
1065.091576445058
 10
1633.289791249118
 20
1064.937955262032
 10
1633.702388398949
 20
1064.743296995299
 10
1634.10641171239
 20
1064.527813332459
 10
1634.305188618658
 20
1064.408919273764
 10
1634.8791966226
 20
1064.025763675967
 10
1635.231687035307
 20
1063.736459673187
 10
1635.877762125063
 20
1063.09175319906
 10
1636.173219514008
 20
1062.732809969115
 10
1636.684384315549
 20
1061.96852672807
 10
1636.903484408833
 20
1061.558227366234
 10
1637.25351721396
 20
1060.712176175311
 10
1637.385770148266
 20
1060.276157930633
 10
1637.519986502117
 20
1059.602636167952
 10
1637.554051183502
 20
1059.373585959182
 10
1637.599114421821
 20
1058.915629483524
 10
1637.610228108851
 20
1058.687135724422
 10
1637.610228108851
 20
1058.459113534505
 72
     1
 10
1637.610228108851
 20
1058.459113534505
 11
1637.610228108851
 21
967.2133783337384
 72
     4
 94
        3
 73
     0
 74
     0
 95
       20
 96
       16
 40
0.0
 40
0.0
 40
0.0
 40
0.0
 40
0.2500000000000009
 40
0.2500000000000009
 40
0.3750000000000011
 40
0.3750000000000011
 40
0.5000000000000013
 40
0.5000000000000013
 40
0.6250000000000016
 40
0.6250000000000016
 40
0.6875000000000001
 40
0.6875000000000001
 40
0.7499999999999987
 40
0.7499999999999987
 40
1.0
 40
1.0
 40
1.0
 40
1.0
 10
1637.610228108851
 20
967.2133783337384
 10
1637.610228108851
 20
965.4499826428515
 10
1637.381008985666
 20
963.7256236299597
 10
1636.703478071643
 20
961.1959155630218
 10
1636.418516881483
 20
960.3567434681493
 10
1635.748065316897
 20
958.7408326921105
 10
1635.362541376812
 20
957.9607519843407
 10
1634.492754555282
 20
956.45531059314
 10
1634.008497738374
 20
955.7299465488101
 10
1633.205594601038
 20
954.6843058590383
 10
1632.925264291421
 20
954.3432155104015
 10
1632.347786018093
 20
953.685783897011
 10
1632.049608414581
 20
953.3680528802637
 10
1630.512517091683
 20
951.8331706827594
 10
1629.137373574081
 20
950.7745681033931
 10
1627.610228108851
 20
949.8928702579458
 72
     1
 10
1627.610228108851
 20
949.8928702579458
 11
1607.610228108851
 21
938.3458648740918
 72
     4
 94
        3
 73
     0
 74
     0
 95
       18
 96
       14
 40
0.0
 40
0.0
 40
0.0
 40
0.0
 40
0.2500000000000069
 40
0.2500000000000069
 40
0.375000000000006
 40
0.375000000000006
 40
0.5000000000000052
 40
0.5000000000000052
 40
0.6250000000000044
 40
0.6250000000000044
 40
0.7500000000000036
 40
0.7500000000000036
 40
1.0
 40
1.0
 40
1.0
 40
1.0
 10
1607.610228108851
 20
938.3458648740917
 10
1606.846655376237
 20
937.9050159513688
 10
1606.159083617436
 20
937.3757146616862
 10
1605.236828823698
 20
936.454785343185
 10
1604.946362052315
 20
936.124420521844
 10
1604.411093294091
 20
935.4273267286636
 10
1604.168964885637
 20
935.0646447064989
 10
1603.734071474872
 20
934.3119240108995
 10
1603.541309504829
 20
933.9218836570151
 10
1603.206083722536
 20
933.1139282689967
 10
1603.063603127456
 20
932.6943422215608
 10
1602.724837670444
 20
931.429488188093
 10
1602.610228108851
 20
930.5673086816479
 10
1602.610228108851
 20
929.685610836205
 72
     1
 10
1602.610228108851
 20
929.685610836205
 11
1602.610228108851
 21
904.9534660192015
 72
     1
 10
1602.610228108851
 20
904.9534660192015
 11
1642.610228108851
 21
904.9534660192014
 72
     1
 10
1642.610228108851
 20
904.9534660192014
 11
1642.610228108851
 21
895.9647610345364
 72
     1
 10
1642.610228108851
 20
895.9647610345365
 11
1602.610228108851
 21
895.9647610345365
 72
     1
 10
1602.610228108851
 20
895.9647610345365
 11
1602.610228108851
 21
885.4591135278745
 72
     4
 94
        3
 73
     0
 74
     0
 95
       29
 96
       25
 40
0.0
 40
0.0
 40
0.0
 40
0.0
 40
0.1250000000000006
 40
0.1250000000000006
 40
0.1875000000000009
 40
0.1875000000000009
 40
0.2500000000000011
 40
0.3125000000000014
 40
0.3125000000000014
 40
0.3750000000000017
 40
0.3750000000000017
 40
0.5000000000000066
 40
0.5000000000000066
 40
0.5625000000000052
 40
0.5625000000000052
 40
0.6250000000000039
 40
0.6250000000000039
 40
0.7500000000000042
 40
0.7500000000000042
 40
0.8125000000000031
 40
0.8125000000000031
 40
0.8750000000000021
 40
0.8750000000000021
 40
1.0
 40
1.0
 40
1.0
 40
1.0
 10
1602.610228108851
 20
885.4591135278745
 10
1602.610228108851
 20
884.7988422369664
 10
1602.674987655511
 20
884.1457666388924
 10
1602.868573510727
 20
883.1768698029401
 10
1602.949271085841
 20
882.8566584664339
 10
1603.139863364412
 20
882.2312574972285
 10
1603.360167464011
 20
881.6180698808819
 10
1603.639108810196
 20
881.0289857142216
 10
1603.947824511998
 20
880.4521406059129
 10
1604.118143935549
 20
880.1683245867913
 10
1604.666528628138
 20
879.3493341978337
 10
1605.080482771581
 20
878.846394500366
 10
1605.772291601899
 20
878.1550801371798
 10
1606.014791809379
 20
877.9352329488175
 10
1606.524356426039
 20
877.5174056001879
 10
1606.789105384219
 20
877.3214745867917
 10
1607.604071591242
 20
876.7778148829348
 10
1608.178204639602
 20
876.4709919363108
 10
1609.086062986265
 20
876.0949504241402
 10
1609.398150100628
 20
875.9833468446927
 10
1610.026041524524
 20
875.7932157908605
 10
1610.342711585472
 20
875.7141473446659
 10
1611.300712931798
 20
875.523865248035
 10
1611.949956817943
 20
875.4591135278438
 10
1612.610228108851
 20
875.4591135278439
 72
     1
 10
1612.610228108851
 20
875.4591135278439
 11
1725.610228108851
 21
875.4591135278439
 72
     4
 94
        3
 73
     0
 74
     0
 95
       24
 96
       20
 40
0.0
 40
0.0
 40
0.0
 40
0.0
 40
0.1249999999999987
 40
0.1249999999999987
 40
0.2499999999999974
 40
0.2499999999999974
 40
0.3749999999999961
 40
0.3749999999999961
 40
0.4999999999999948
 40
0.4999999999999948
 40
0.6249999999999936
 40
0.6249999999999936
 40
0.7499999999999922
 40
0.7499999999999922
 40
0.8124999999999916
 40
0.8124999999999916
 40
0.8749999999999909
 40
0.8749999999999909
 40
1.0
 40
1.0
 40
1.0
 40
1.0
 10
1725.610228108851
 20
875.4591135278439
 10
1725.940363754305
 20
875.4591135278439
 10
1726.266901553342
 20
875.4914933011743
 10
1726.912832777311
 20
875.6205505379861
 10
1727.227169078394
 20
875.7166014438258
 10
1727.828304939217
 20
875.9662242413564
 10
1728.119124181232
 20
876.1216739924338
 10
1728.665117773868
 20
876.4872637874947
 10
1728.916587622601
 20
876.6942408592174
 10
1729.377463864723
 20
877.1554467460985
 10
1729.588437628742
 20
877.4127244643695
 10
1729.950877431311
 20
877.9560352690526
 10
1730.104288904622
 20
878.2431017932331
 10
1730.292309660706
 20
878.6970309665654
 10
1730.348111450429
 20
878.8530745237468
 10
1730.443176977345
 20
879.1670202356951
 10
1730.482711200441
 20
879.325355266169
 10
1730.577852248756
 20
879.8043559393321
 10
1730.610228108851
 20
880.1289778824048
 10
1730.610228108851
 20
880.459113527859
 72
     1
 10
1730.610228108851
 20
880.459113527859
 11
1730.610228108851
 21
881.3600940142683
 72
     4
 94
        3
 73
     0
 74
     0
 95
       16
 96
       12
 40
0.0
 40
0.0
 40
0.0
 40
0.0
 40
0.2500000000000039
 40
0.2500000000000039
 40
0.3750000000000001
 40
0.3750000000000001
 40
0.4999999999999963
 40
0.4999999999999963
 40
0.7499999999999982
 40
0.7499999999999982
 40
1.0
 40
1.0
 40
1.0
 40
1.0
 10
1730.610228108851
 20
881.3600940142683
 10
1730.610228108851
 20
881.9380494349273
 10
1730.512935209042
 20
882.4982354895899
 10
1730.222449891921
 20
883.3121150069383
 10
1730.10251150942
 20
883.573815539954
 10
1729.821966512919
 20
884.0697863879568
 10
1729.66083843124
 20
884.3055527824683
 10
1729.112562785833
 20
884.9748328936782
 10
1728.67982150509
 20
885.3489461397407
 10
1727.689959541228
 20
885.9435492683681
 10
1727.157540701452
 20
886.1496510093557
 10
1726.590808784543
 20
886.2629973927379
 72
     1
 10
1726.590808784543
 20
886.2629973927379
 11
1671.687905406083
 21
897.2435780684793
 72
     4
 94
        3
 73
     0
 74
     0
 95
       26
 96
       22
 40
0.0
 40
0.0
 40
0.0
 40
0.0
 40
0.1250000000000004
 40
0.1250000000000004
 40
0.2500000000000008
 40
0.2500000000000008
 40
0.3750000000000012
 40
0.3750000000000012
 40
0.4375000000000018
 40
0.4375000000000018
 40
0.5000000000000024
 40
0.5000000000000024
 40
0.6250000000000003
 40
0.6250000000000003
 40
0.6874999999999993
 40
0.6874999999999993
 40
0.7499999999999983
 40
0.7499999999999983
 40
0.8749999999999991
 40
0.8749999999999991
 40
1.0
 40
1.0
 40
1.0
 40
1.0
 10
1671.687905406083
 20
897.2435780684793
 10
1670.554441572265
 20
897.470270835244
 10
1669.457088366706
 20
897.7911585997517
 10
1667.331571985351
 20
898.6134171336677
 10
1666.301440415482
 20
899.1159736945878
 10
1664.321716487757
 20
900.3051799518432
 10
1663.396910069426
 20
900.9764812845409
 10
1662.103487963153
 20
902.0940054782182
 10
1661.688068458744
 20
902.4850482828695
 10
1660.88909456342
 20
903.3047017421949
 10
1660.504338110108
 20
903.7347962871429
 10
1659.407786819294
 20
905.0733565095636
 10
1658.763274492577
 20
906.0164220876104
 10
1657.921639503074
 20
907.50433463162
 10
1657.662069079843
 20
908.0125942237958
 10
1657.185508407061
 20
909.0540606075217
 10
1656.967684098491
 20
909.589693956586
 10
1656.38671346425
 20
911.217452991283
 10
1656.09790543232
 20
912.3206165547216
 10
1655.709669545825
 20
914.5615316699367
 10
1655.610228108851
 20
915.6992807410516
 10
1655.610228108851
 20
916.8551915823697
 72
     1
 10
1655.610228108851
 20
916.8551915823697
 11
1655.610228108851
 21
1060.459113534887
 72
     4
 94
        3
 73
     0
 74
     0
 95
       29
 96
       25
 40
0.0
 40
0.0
 40
0.0
 40
0.0
 40
0.1250000000000003
 40
0.1250000000000003
 40
0.1875000000000003
 40
0.1875000000000003
 40
0.2500000000000002
 40
0.2500000000000002
 40
0.3750000000000017
 40
0.3750000000000017
 40
0.5000000000000031
 40
0.5000000000000031
 40
0.5625000000000031
 40
0.5625000000000031
 40
0.6250000000000032
 40
0.6875000000000033
 40
0.6875000000000033
 40
0.7500000000000033
 40
0.7500000000000033
 40
0.8750000000000017
 40
0.8750000000000017
 40
0.9375000000000009
 40
0.9375000000000009
 40
1.0
 40
1.0
 40
1.0
 40
1.0
 10
1655.610228108851
 20
1060.459113534887
 10
1655.610228108851
 20
1061.438748517726
 10
1655.515175845406
 20
1062.410576574576
 10
1655.228682010099
 20
1063.85649845537
 10
1655.108152960392
 20
1064.338837029492
 10
1654.822745203791
 20
1065.280569458719
 10
1654.657811544154
 20
1065.741526639712
 10
1654.097799587302
 20
1067.09533007073
 10
1653.638106536377
 20
1067.959461759081
 10
1652.538894235587
 20
1069.607215210051
 10
1651.914164506728
 20
1070.368675131331
 10
1650.864806612974
 20
1071.417590483635
 10
1650.49859741997
 20
1071.748937253415
 10
1649.740915464853
 20
1072.370054540755
 10
1648.95596397103
 20
1072.951615534359
 10
1648.117021652411
 20
1073.45485921766
 10
1647.250574575284
 20
1073.918205405137
 10
1646.801176484734
 20
1074.130774329186
 10
1645.437124043079
 20
1074.695323633779
 10
1644.502316943804
 20
1074.97839419929
 10
1643.062580748834
 20
1075.265376846852
 10
1642.576370295195
 20
1075.337938680957
 10
1641.590901253457
 20
1075.435208920872
 10
1641.099640806996
 20
1075.459113539698
 10
1640.610228108851
 20
1075.459113539698
 97
        0
 75
     0
 76
     2
 52
45.0
 41
1.0
 77
     0
 78
     1
 53
45.0
 43
0.0
 44
0.0
 45
-2.245064030267288
 46
2.245064030267288
 79
     0
 98
        0
  0
INSERT
  5
C4
330
1F
100
AcDbEntity
  8
Default
100
AcDbBlockReference
  2
GDimGGroup
 10
0.0
 20
0.0
 30
0.0
  0
INSERT
  5
D1
330
1F
100
AcDbEntity
  8
Default
100
AcDbBlockReference
  2
GDimGGroup1
 10
0.0
 20
0.0
 30
0.0
  0
INSERT
  5
DB
330
1F
100
AcDbEntity
  8
Default
100
AcDbBlockReference
  2
GDimGGroup2
 10
0.0
 20
0.0
 30
0.0
  0
INSERT
  5
E5
330
1F
100
AcDbEntity
  8
Default
100
AcDbBlockReference
  2
GDimGGroup3
 10
0.0
 20
0.0
 30
0.0
  0
INSERT
  5
EF
330
1F
100
AcDbEntity
  8
Default
100
AcDbBlockReference
  2
GDimGGroup4
 10
0.0
 20
0.0
 30
0.0
  0
INSERT
  5
F9
330
1F
100
AcDbEntity
  8
Default
100
AcDbBlockReference
  2
GDimGGroup5
 10
0.0
 20
0.0
 30
0.0
  0
INSERT
  5
103
330
1F
100
AcDbEntity
  8
Default
100
AcDbBlockReference
  2
GDimGGroup6
 10
0.0
 20
0.0
 30
0.0
  0
SPLINE
  5
10C
330
1F
100
AcDbEntity
  8
WIND
  6
Continuous
 62
     7
100
AcDbSpline
210
0.0
220
0.0
230
1.0
 70
     8
 71
     3
 72
    20
 73
    16
 74
     0
 42
0.0000000000102986
 43
0.0000000001
 40
0.0
 40
0.0
 40
0.0
 40
0.0
 40
0.0156249784017878
 40
0.0156249784017878
 40
0.0312499784017878
 40
0.0312499784017878
 40
0.0468749784017878
 40
0.0468749784017878
 40
0.0624999784017878
 40
0.0624999784017878
 40
0.0781249784017878
 40
0.0781249784017878
 40
0.0937499784017878
 40
0.0937499784017878
 40
0.1098524239775548
 40
0.1098524239775548
 40
0.1098524239775548
 40
0.1098524239775548
 10
319.2383937427453
 20
283.2443694979651
 30
0.0
 10
319.2383945991431
 20
277.2324259737832
 30
0.0
 10
319.5481710427918
 20
271.3993408121426
 30
0.0
 10
320.7842945677629
 20
260.1470190618815
 30
0.0
 10
321.7106405883792
 20
254.7278004590451
 30
0.0
 10
324.1709847934911
 20
244.3554121468545
 30
0.0
 10
325.7049791704432
 20
239.4022584894491
 30
0.0
 10
329.3658487417013
 20
230.0097031618661
 30
0.0
 10
331.4927182705723
 20
225.5703160272816
 30
0.0
 10
336.3188570327706
 20
217.2480491266037
 30
0.0
 10
339.0181187973325
 20
213.3651822397622
 30
0.0
 10
344.963048395955
 20
206.1933517456569
 30
0.0
 10
348.2087070298486
 20
202.9043992372695
 30
0.0
 10
355.3222211643413
 20
196.861132631627
 30
0.0
 10
359.2066620449453
 20
194.1270660631626
 30
0.0
 10
363.3441841703659
 20
191.7383554960063
 30
0.0
  0
SPLINE
  5
10D
330
1F
100
AcDbEntity
  8
WIND
  6
Continuous
 62
     7
100
AcDbSpline
210
0.0
220
0.0
230
1.0
 70
     8
 71
     3
 72
     8
 73
     4
 74
     0
 42
0.0000000000112331
 43
0.0000000001
 40
0.609850053547561
 40
0.609850053547561
 40
0.609850053547561
 40
0.609850053547561
 40
0.6101056683034637
 40
0.6101056683034637
 40
0.6101056683034637
 40
0.6101056683034637
 10
660.5076262907384
 20
597.2446967203153
 30
0.0
 10
660.4419472821236
 20
597.282617398657
 30
0.0
 10
660.376204498071
 20
597.3204510502239
 30
0.0
 10
660.3103980229021
 20
597.3581976257389
 30
0.0
  0
SPLINE
  5
10E
330
1F
100
AcDbEntity
  8
WIND
  6
Continuous
 62
     7
100
AcDbSpline
210
0.0
220
0.0
230
1.0
 70
     8
 71
     3
 72
    41
 73
    37
 74
     0
 42
0.0000000000074587
 43
0.0000000001
 40
0.6101056683034637
 40
0.6101056683034637
 40
0.6101056683034637
 40
0.6101056683034637
 40
0.6249999784017879
 40
0.6249999784017879
 40
0.6562499784017879
 40
0.6562499784017879
 40
0.6874999784017879
 40
0.6874999784017879
 40
0.7187499784017879
 40
0.7187499784017879
 40
0.7499999784017879
 40
0.7499999784017879
 40
0.7812499784017879
 40
0.7812499784017879
 40
0.8124999784017879
 40
0.8124999784017879
 40
0.8437499784017879
 40
0.8437499784017879
 40
0.8749999784017879
 40
0.8749999784017879
 40
0.9062499784017879
 40
0.9062499784017879
 40
0.9218749784017879
 40
0.9218749784017879
 40
0.9374999784017879
 40
0.9374999784017879
 40
0.9531249784017879
 40
0.9531249784017879
 40
0.9687499784017879
 40
0.9687499784017879
 40
0.9843749784017879
 40
0.9843749784017879
 40
0.9999999784017879
 40
0.9999999784017879
 40
0.9999999784017879
 40
1.0
 40
1.0
 40
1.0
 40
1.0
 10
660.3103980229021
 20
597.358197625739
 30
0.0
 10
656.4759478395243
 20
599.5576371646823
 30
0.0
 10
652.4252517953987
 20
601.4614336554088
 30
0.0
 10
639.2574499691693
 20
606.4134777743062
 30
0.0
 10
629.4618493524787
 20
608.4225880291763
 30
0.0
 10
608.4900100401621
 20
609.6747379818536
 30
0.0
 10
597.3142899145905
 20
608.9177467177859
 30
0.0
 10
574.0116306074038
 20
604.6666483036797
 30
0.0
 10
561.8852676299605
 20
601.1726462704266
 30
0.0
 10
537.1472964567968
 20
591.5816668175474
 30
0.0
 10
524.5362999561628
 20
585.4849265537883
 30
0.0
 10
499.3136832759929
 20
570.9226420238273
 30
0.0
 10
486.7026867753588
 20
562.4574578388068
 30
0.0
 10
461.9647156021952
 20
543.4834886596269
 30
0.0
 10
449.8383526247517
 20
532.9751728342454
 30
0.0
 10
426.535693317565
 20
510.3186780006779
 30
0.0
 10
415.3599731919934
 20
498.1710592189739
 30
0.0
 10
394.3881338796768
 20
472.7027151215642
 30
0.0
 10
384.5925332629863
 20
459.3826195608548
 30
0.0
 10
366.7574499691693
 20
432.0811603804545
 30
0.0
 10
358.7184082996231
 20
418.1004718431423
 30
0.0
 10
348.2087070298485
 20
397.0364259697002
 30
0.0
 10
344.9630483959551
 20
389.9997096893613
 30
0.0
 10
339.0181187973326
 20
375.9632657871006
 30
0.0
 10
336.3188570327706
 20
368.9635598874933
 30
0.0
 10
331.4927182705724
 20
355.0685479598128
 30
0.0
 10
329.3658487417012
 20
348.1732634351786
 30
0.0
 10
325.7049791704432
 20
334.5535000427281
 30
0.0
 10
324.1709847934911
 20
327.8290422523856
 30
0.0
 10
321.7106405883792
 20
314.6156931619545
 30
0.0
 10
320.7842945677629
 20
308.1268223103869
 30
0.0
 10
319.5481701884534
 20
295.4471392968672
 30
0.0
 10
319.2383937427436
 20
289.256346757553
 30
0.0
 10
319.2383937427435
 20
283.244394428669
 30
0.0
 10
319.2383937427436
 20
283.2443861184341
 30
0.0
 10
319.2383937427442
 20
283.2443778081994
 30
0.0
 10
319.2383937427453
 20
283.2443694979652
 30
0.0
  0
SPLINE
  5
10F
330
1F
100
AcDbEntity
  8
WIND
  6
Continuous
 62
     7
100
AcDbSpline
210
0.0
220
0.0
230
1.0
 70
     8
 71
     3
 72
    38
 73
    34
 74
     0
 42
0.0000000000073999
 43
0.0000000001
 40
0.0
 40
0.0
 40
0.0
 40
0.0
 40
0.015625
 40
0.015625
 40
0.03125
 40
0.03125
 40
0.046875
 40
0.046875
 40
0.0625
 40
0.0625
 40
0.078125
 40
0.078125
 40
0.09375
 40
0.09375
 40
0.125
 40
0.125
 40
0.15625
 40
0.15625
 40
0.1875
 40
0.1875
 40
0.21875
 40
0.21875
 40
0.25
 40
0.25
 40
0.28125
 40
0.28125
 40
0.3125
 40
0.3125
 40
0.34375
 40
0.34375
 40
0.375
 40
0.375
 40
0.3807277388442025
 40
0.3807277388442025
 40
0.3807277388442025
 40
0.3807277388442025
 10
399.1414600168234
 20
237.1123376062577
 30
0.0
 10
399.1414600168234
 20
243.1242899351418
 30
0.0
 10
399.4512364625332
 20
249.315082474456
 30
0.0
 10
400.6873608418427
 20
261.9947654879756
 30
0.0
 10
401.6137068624591
 20
268.4836363395432
 30
0.0
 10
404.074051067571
 20
281.6969854299745
 30
0.0
 10
405.608045444523
 20
288.4214432203169
 30
0.0
 10
409.2689150157811
 20
302.0412066127673
 30
0.0
 10
411.3957845446522
 20
308.9364911374016
 30
0.0
 10
416.2219233068504
 20
322.831503065082
 30
0.0
 10
418.9211850714124
 20
329.8312089646894
 30
0.0
 10
424.866114670035
 20
343.8676528669501
 30
0.0
 10
428.1117733039284
 20
350.9043691472889
 30
0.0
 10
438.6214745737029
 20
371.9684150207311
 30
0.0
 10
446.6605162432491
 20
385.9491035580433
 30
0.0
 10
464.4955995370661
 20
413.2505627384436
 30
0.0
 10
474.2912001537567
 20
426.570658299153
 30
0.0
 10
495.2630394660733
 20
452.0390023965626
 30
0.0
 10
506.4387595916448
 20
464.1866211782667
 30
0.0
 10
529.7414188988316
 20
486.8431160118342
 30
0.0
 10
541.867781876275
 20
497.3514318372157
 30
0.0
 10
566.6057530494386
 20
516.3254010163956
 30
0.0
 10
579.2167495500728
 20
524.790585201416
 30
0.0
 10
604.4393662302426
 20
539.3528697313772
 30
0.0
 10
617.0503627308767
 20
545.4496099951363
 30
0.0
 10
641.7883339040403
 20
555.0405894480153
 30
0.0
 10
653.9146968814838
 20
558.5345914812684
 30
0.0
 10
677.2173561886705
 20
562.7856898953746
 30
0.0
 10
688.3930763142421
 20
563.5426811594423
 30
0.0
 10
709.3649156265585
 20
562.290531206765
 30
0.0
 10
719.1605162432493
 20
560.2814209518949
 30
0.0
 10
729.7125330801031
 20
556.3131008321798
 30
0.0
 10
731.317495625477
 20
555.653257135704
 30
0.0
 10
732.8919968251415
 20
554.9488048323636
 30
0.0
  0
SPLINE
  5
110
330
1F
100
AcDbEntity
  8
WIND
  6
Continuous
 62
     7
100
AcDbSpline
210
0.0
220
0.0
230
1.0
 70
     8
 71
     3
 72
     8
 73
     4
 74
     0
 42
0.0000000000112002
 43
0.0000000001
 40
0.3807277388442025
 40
0.3807277388442025
 40
0.3807277388442025
 40
0.3807277388442025
 40
0.3993642904539673
 40
0.3993642904539673
 40
0.3993642904539673
 40
0.3993642904539673
 10
732.8919968251415
 20
554.9488048323636
 30
0.0
 10
738.015008482156
 20
552.6567028240623
 30
0.0
 10
742.8155319735434
 20
549.8923384299752
 30
0.0
 10
747.2608877193135
 20
546.674809543159
 30
0.0
  0
SPLINE
  5
111
330
1F
100
AcDbEntity
  8
WIND
  6
Continuous
 62
     7
100
AcDbSpline
210
0.0
220
0.0
230
1.0
 70
     8
 71
     3
 72
     8
 73
     4
 74
     0
 42
0.0000000000112006
 43
0.0000000001
 40
0.8807645856407704
 40
0.8807645856407704
 40
0.8807645856407704
 40
0.8807645856407704
 40
0.8993925822295639
 40
0.8993925822295639
 40
0.8993925822295639
 40
0.8993925822295639
 10
450.733736230318
 20
141.7847895392368
 30
0.0
 10
445.614351008898
 20
144.077705880844
 30
0.0
 10
440.8172225000395
 20
146.8424134038511
 30
0.0
 10
436.3749853001682
 20
150.0598405035228
 30
0.0
  0
SPLINE
  5
112
330
1F
100
AcDbEntity
  8
WIND
  6
Continuous
 62
     7
100
AcDbSpline
210
0.0
220
0.0
230
1.0
 70
     8
 71
     3
 72
    20
 73
    16
 74
     0
 42
0.0000000000102185
 43
0.0000000001
 40
0.8993925822295639
 40
0.8993925822295639
 40
0.8993925822295639
 40
0.8993925822295639
 40
0.90625
 40
0.90625
 40
0.921875
 40
0.921875
 40
0.9375
 40
0.9375
 40
0.953125
 40
0.953125
 40
0.96875
 40
0.96875
 40
0.984375
 40
0.984375
 40
1.0
 40
1.0
 40
1.0
 40
1.0
 10
436.3749853001682
 20
150.0598405035228
 30
0.0
 10
434.7396899440797
 20
151.2442535273927
 30
0.0
 10
433.1524878551723
 20
152.4900170633981
 30
0.0
 10
428.1117733039285
 20
156.7723424148583
 30
0.0
 10
424.8661146700349
 20
160.0612949232457
 30
0.0
 10
418.9211850714124
 20
167.233125417351
 30
0.0
 10
416.2219233068504
 20
171.1159923041925
 30
0.0
 10
411.3957845446522
 20
179.4382592048703
 30
0.0
 10
409.2689150157811
 20
183.8776463394548
 30
0.0
 10
405.608045444523
 20
193.2702016670379
 30
0.0
 10
404.074051067571
 20
198.2233553244433
 30
0.0
 10
401.6137068624591
 20
208.5957436366339
 30
0.0
 10
400.6873608418427
 20
214.0149622394703
 30
0.0
 10
399.4512364625332
 20
225.2672917666978
 30
0.0
 10
399.1414600168234
 20
231.1003852773736
 30
0.0
 10
399.1414600168234
 20
237.1123376062577
 30
0.0
  0
SPLINE
  5
113
330
1F
100
AcDbEntity
  8
WIND
  6
Continuous
 62
     7
100
AcDbSpline
210
0.0
220
0.0
230
1.0
 70
    11
 71
     3
 72
   118
 73
   114
 74
     0
 42
0.0000000000081037
 43
0.0000000001
 40
0.0
 40
0.0
 40
0.0
 40
0.0
 40
0.03125
 40
0.03125
 40
0.0390625000000001
 40
0.0390625000000001
 40
0.0468750000000001
 40
0.0468750000000001
 40
0.0625000000000001
 40
0.0625000000000001
 40
0.0781250000000002
 40
0.0781250000000002
 40
0.0859375000000002
 40
0.0859375000000002
 40
0.0937500000000002
 40
0.0937500000000002
 40
0.1250000000000001
 40
0.1250000000000001
 40
0.1406250000000001
 40
0.1406250000000001
 40
0.1562500000000001
 40
0.1562500000000001
 40
0.171875
 40
0.171875
 40
0.1875
 40
0.1875
 40
0.2187499999999999
 40
0.2187499999999999
 40
0.2343749999999999
 40
0.2343749999999999
 40
0.2499999999999999
 40
0.2499999999999999
 40
0.2812499999999998
 40
0.2812499999999998
 40
0.2968749999999997
 40
0.2968749999999997
 40
0.3124999999999997
 40
0.3124999999999997
 40
0.3437499999999996
 40
0.3437499999999996
 40
0.3749999999999996
 40
0.3749999999999996
 40
0.3906249999999995
 40
0.3906249999999995
 40
0.4062499999999995
 40
0.4062499999999995
 40
0.4218749999999994
 40
0.4218749999999994
 40
0.4374999999999994
 40
0.4374999999999994
 40
0.4687499999999994
 40
0.4687499999999994
 40
0.4765624999999994
 40
0.4765624999999994
 40
0.4843749999999994
 40
0.4843749999999994
 40
0.4999999999999994
 40
0.4999999999999994
 40
0.5156249999999994
 40
0.5156249999999994
 40
0.5312499999999994
 40
0.5312499999999994
 40
0.5624999999999996
 40
0.5624999999999996
 40
0.5937499999999996
 40
0.5937499999999996
 40
0.6093749999999996
 40
0.6093749999999996
 40
0.6249999999999996
 40
0.6249999999999996
 40
0.6406249999999997
 40
0.6406249999999997
 40
0.6562499999999997
 40
0.6562499999999997
 40
0.6874999999999997
 40
0.6874999999999997
 40
0.7031249999999997
 40
0.7031249999999997
 40
0.7187499999999998
 40
0.7187499999999998
 40
0.7499999999999998
 40
0.7499999999999998
 40
0.7656249999999998
 40
0.7656249999999998
 40
0.7812499999999998
 40
0.7812499999999998
 40
0.8124999999999999
 40
0.8124999999999999
 40
0.8437499999999999
 40
0.8437499999999999
 40
0.8593749999999999
 40
0.8593749999999999
 40
0.8749999999999999
 40
0.8749999999999999
 40
0.890625
 40
0.890625
 40
0.8984375
 40
0.8984375
 40
0.90625
 40
0.90625
 40
0.9375
 40
0.9375
 40
0.9453125
 40
0.9453125
 40
0.953125
 40
0.953125
 40
0.9687500000000001
 40
0.9687500000000001
 40
0.9843750000000001
 40
0.9843750000000001
 40
0.9921875000000001
 40
0.9921875000000001
 40
1.0
 40
1.0
 40
1.0
 40
1.0
 10
406.2125278286888
 20
237.1123376062577
 30
0.0
 10
406.2125278286888
 20
223.9231893168406
 30
0.0
 10
407.724537826216
 20
211.9137387801592
 30
0.0
 10
411.3820099270528
 20
198.2809297998978
 30
0.0
 10
412.2028785042706
 20
195.6240993498006
 30
0.0
 10
414.0243061473105
 20
190.4506362432327
 30
0.0
 10
415.0248583571795
 20
187.9370483391258
 30
0.0
 10
418.249652290824
 20
180.7054191907714
 30
0.0
 10
420.7082563234703
 20
176.2588462999112
 30
0.0
 10
426.2022854942697
 20
168.0654029731953
 30
0.0
 10
429.2377598714635
 20
164.3185922658711
 30
0.0
 10
434.2093481529601
 20
159.2058805460077
 30
0.0
 10
435.9410355767828
 20
157.5828093602815
 30
0.0
 10
439.5081797685157
 20
154.5339251005913
 30
0.0
 10
441.3458514104829
 20
153.1053613085603
 30
0.0
 10
450.7918590929498
 20
146.4191636133725
 30
0.0
 10
459.1638022325092
 20
142.5148382807668
 30
0.0
 10
472.8336697751334
 20
138.6290172664719
 30
0.0
 10
477.5454809248789
 20
137.6749718709161
 30
0.0
 10
487.1743563045539
 20
136.4184329470453
 30
0.0
 10
492.1048267914807
 20
136.1129960959732
 30
0.0
 10
502.1858911107521
 20
136.1145612567704
 30
0.0
 10
507.3362567533694
 20
136.4209283870604
 30
0.0
 10
517.8509190700988
 20
137.628872925896
 30
0.0
 10
523.229086237484
 20
138.5357766068992
 30
0.0
 10
539.4393810252241
 20
142.0881906101062
 30
0.0
 10
550.4151243591854
 20
145.5561503194455
 30
0.0
 10
567.1180446195639
 20
152.316355358148
 30
0.0
 10
572.7258048435549
 20
154.8310042195921
 30
0.0
 10
584.0218243696078
 20
160.3844815380224
 30
0.0
 10
589.7175050998767
 20
163.4296485814715
 30
0.0
 10
606.6651703971149
 20
173.2146555147397
 30
0.0
 10
617.8641055049126
 20
180.6354907048016
 30
0.0
 10
634.5142547708685
 20
193.103886695959
 30
0.0
 10
640.0393440398906
 20
197.485145035008
 30
0.0
 10
651.0381204056603
 20
206.7112737949102
 30
0.0
 10
656.5305982499397
 20
211.5736278984764
 30
0.0
 10
672.7954184416136
 20
226.7760561107112
 30
0.0
 10
683.2270853675614
 20
237.5995901683665
 30
0.0
 10
703.2469111931058
 20
260.6579795400907
 30
0.0
 10
712.8346233786749
 20
272.8935822768071
 30
0.0
 10
726.4914720427837
 20
292.459555989486
 30
0.0
 10
730.9267597823313
 20
299.1996295881175
 30
0.0
 10
739.3291707781256
 20
312.80372302316
 30
0.0
 10
743.3234109456581
 20
319.703478505192
 30
0.0
 10
750.8795891191278
 20
333.7070802221866
 30
0.0
 10
754.4411386829688
 20
340.811109841474
 30
0.0
 10
761.0969966723395
 20
355.2397545968232
 30
0.0
 10
764.2056316012888
 20
362.6086027471512
 30
0.0
 10
772.5427966067548
 20
384.5055125195089
 30
0.0
 10
776.8672180942187
 20
398.9547447046909
 30
0.0
 10
780.6065733804293
 20
416.8154461688131
 30
0.0
 10
781.2701752884373
 20
420.3774287369883
 30
0.0
 10
782.4215835423258
 20
427.4802036402475
 30
0.0
 10
782.9093502327567
 20
431.0270723714257
 30
0.0
 10
784.0799578038461
 20
441.4586361068979
 30
0.0
 10
784.4816487908911
 20
448.1923521464603
 30
0.0
 10
784.543772918982
 20
461.2278863549327
 30
0.0
 10
784.2040921170659
 20
467.5296381343633
 30
0.0
 10
782.7724531741216
 20
479.6948232556446
 30
0.0
 10
781.6693294861485
 20
485.5782504494784
 30
0.0
 10
777.3335780874874
 20
502.0685324369376
 30
0.0
 10
773.0783953022681
 20
511.7076970899517
 30
0.0
 10
762.0118931821476
 20
528.4229164906404
 30
0.0
 10
755.4016650556006
 20
535.2034476911981
 30
0.0
 10
744.0804682096109
 20
543.3155719157445
 30
0.0
 10
740.0491011282437
 20
545.6821888952181
 30
0.0
 10
731.6483448901126
 20
549.6835029516045
 30
0.0
 10
727.2813276993588
 20
551.3219640200732
 30
0.0
 10
718.2382804161457
 20
553.9272356049132
 30
0.0
 10
713.562530798276
 20
554.8946557427987
 30
0.0
 10
703.9161244764289
 20
556.1885049592689
 30
0.0
 10
698.9247663623597
 20
556.5136407828788
 30
0.0
 10
683.6762730610633
 20
556.5432184171278
 30
0.0
 10
673.1890262240225
 20
555.3277973361526
 30
0.0
 10
657.0182856524174
 20
551.8152155893404
 30
0.0
 10
651.5543160941694
 20
550.3612014911787
 30
0.0
 10
640.4805418193101
 20
546.893050873337
 30
0.0
 10
634.868651819188
 20
544.8754845343515
 30
0.0
 10
618.070074397932
 20
538.0847614146483
 30
0.0
 10
606.8357851384351
 20
532.5598047914508
 30
0.0
 10
589.9330017362616
 20
522.8183297812636
 30
0.0
 10
584.290110831935
 20
519.3268062870728
 30
0.0
 10
572.9867897325589
 20
511.8471074289823
 30
0.0
 10
567.3056186419171
 20
507.842213398642
 30
0.0
 10
550.486676702723
 20
495.2417629781501
 30
0.0
 10
539.5175198314364
 20
486.0359601788518
 30
0.0
 10
518.0720378150252
 20
465.9938644886983
 30
0.0
 10
507.5961541878403
 20
455.1561108748656
 30
0.0
 10
492.2979139133139
 20
437.5245537604826
 30
0.0
 10
487.3142774913929
 20
431.466438377604
 30
0.0
 10
477.6705603945323
 20
419.0847809338227
 30
0.0
 10
472.9963475330384
 20
412.7458811186992
 30
0.0
 10
463.9559090007951
 20
399.7592069051069
 30
0.0
 10
459.5899341581384
 20
393.1111809558434
 30
0.0
 10
453.2899760455891
 20
382.8894204336565
 30
0.0
 10
451.2314994729692
 20
379.4405378616109
 30
0.0
 10
447.2016196159479
 20
372.4554485481157
 30
0.0
 10
445.2319787990522
 20
368.9214100527212
 30
0.0
 10
435.722013158222
 20
351.2303146605677
 30
0.0
 10
429.0939033465245
 20
336.8549564896616
 30
0.0
 10
422.1685254219764
 20
318.5770198241292
 30
0.0
 10
420.8521908744962
 20
314.9058245556895
 30
0.0
 10
418.3640596890305
 20
307.530616091864
 30
0.0
 10
417.1969114339656
 20
303.838791063214
 30
0.0
 10
413.9656433067005
 20
292.8714771627775
 30
0.0
 10
412.1551286560731
 20
285.6571157769593
 30
0.0
 10
409.2276295975692
 20
271.4245092452529
 30
0.0
 10
408.1107933211316
 20
264.4063059879213
 30
0.0
 10
406.9793974648484
 20
254.0327932351969
 30
0.0
 10
406.6932148561684
 20
250.6006742745354
 30
0.0
 10
406.3092875102868
 20
243.7897227487241
 30
0.0
 10
406.2125278286888
 20
240.4096246786119
 30
0.0
 10
406.2125278286888
 20
237.1123376062577
 30
0.0
  0
SPLINE
  5
114
330
1F
100
AcDbEntity
  8
WIND
  6
Continuous
 62
     7
100
AcDbSpline
210
0.0
220
0.0
230
1.0
 70
    11
 71
     3
 72
   120
 73
   116
 74
     0
 42
0.0000000000081353
 43
0.0000000001
 40
0.0
 40
0.0
 40
0.0
 40
0.0
 40
0.0312500000000002
 40
0.0312500000000002
 40
0.0390625000000002
 40
0.0390625000000002
 40
0.0468750000000002
 40
0.0468750000000002
 40
0.0625000000000003
 40
0.0625000000000003
 40
0.0781250000000003
 40
0.0781250000000003
 40
0.0859375000000004
 40
0.0859375000000004
 40
0.0937500000000004
 40
0.0937500000000004
 40
0.1250000000000006
 40
0.1250000000000006
 40
0.1406250000000006
 40
0.1406250000000006
 40
0.1562500000000007
 40
0.1562500000000007
 40
0.1718750000000007
 40
0.1718750000000007
 40
0.1875000000000008
 40
0.1875000000000008
 40
0.2187500000000009
 40
0.2187500000000009
 40
0.2343750000000009
 40
0.2343750000000009
 40
0.2500000000000009
 40
0.2500000000000009
 40
0.281250000000001
 40
0.281250000000001
 40
0.2968750000000011
 40
0.2968750000000011
 40
0.3125000000000011
 40
0.3125000000000011
 40
0.3437500000000011
 40
0.3437500000000011
 40
0.3750000000000012
 40
0.3750000000000012
 40
0.3906250000000012
 40
0.3906250000000012
 40
0.4062500000000013
 40
0.4062500000000013
 40
0.4218750000000013
 40
0.4218750000000013
 40
0.4375000000000013
 40
0.4375000000000013
 40
0.4687500000000014
 40
0.4687500000000014
 40
0.4765625000000014
 40
0.4765625000000014
 40
0.4843750000000013
 40
0.4843750000000013
 40
0.5000000000000013
 40
0.5000000000000013
 40
0.5156250000000013
 40
0.5156250000000013
 40
0.5312500000000013
 40
0.5312500000000013
 40
0.5625000000000012
 40
0.5625000000000012
 40
0.5937500000000012
 40
0.5937500000000012
 40
0.6015625000000012
 40
0.6015625000000012
 40
0.6093750000000012
 40
0.6093750000000012
 40
0.6250000000000012
 40
0.6250000000000012
 40
0.6406250000000012
 40
0.6406250000000012
 40
0.6562500000000012
 40
0.6562500000000012
 40
0.687500000000001
 40
0.687500000000001
 40
0.703125000000001
 40
0.703125000000001
 40
0.718750000000001
 40
0.718750000000001
 40
0.7500000000000008
 40
0.7500000000000008
 40
0.7656250000000008
 40
0.7656250000000008
 40
0.7812500000000008
 40
0.7812500000000008
 40
0.8125000000000007
 40
0.8125000000000007
 40
0.8437500000000004
 40
0.8437500000000004
 40
0.8593750000000004
 40
0.8593750000000004
 40
0.8750000000000004
 40
0.8750000000000004
 40
0.8906250000000004
 40
0.8906250000000004
 40
0.8984375000000004
 40
0.8984375000000004
 40
0.9062500000000004
 40
0.9062500000000004
 40
0.9375000000000004
 40
0.9375000000000004
 40
0.9453125000000003
 40
0.9453125000000003
 40
0.9531250000000003
 40
0.9531250000000003
 40
0.9687500000000002
 40
0.9687500000000002
 40
0.9843750000000002
 40
0.9843750000000002
 40
0.9921875000000002
 40
0.9921875000000002
 40
1.0
 40
1.0
 40
1.0
 40
1.0
 10
406.9425161608743
 20
237.5337867959553
 30
0.0
 10
406.9425154051647
 20
250.6718552590586
 30
0.0
 10
408.4467000596485
 20
264.3727469132862
 30
0.0
 10
412.0859648937566
 20
282.1570417369583
 30
0.0
 10
412.9027776774403
 20
285.7471869227056
 30
0.0
 10
414.7152770286331
 20
292.9944067519247
 30
0.0
 10
415.7112607428949
 20
296.6495994927823
 30
0.0
 10
418.9214488720929
 20
307.5631926804015
 30
0.0
 10
421.3689655356882
 20
314.8205381925179
 30
0.0
 10
426.8394602347326
 20
329.300814224402
 30
0.0
 10
429.8619543744787
 20
336.5237736831527
 30
0.0
 10
434.81178863586
 20
347.3333287697677
 30
0.0
 10
436.5361372168457
 20
350.9417237692152
 30
0.0
 10
440.0896507233366
 20
358.0832829509565
 30
0.0
 10
441.920336136172
 20
361.6205643779437
 30
0.0
 10
451.3304966837692
 20
379.1474997150003
 30
0.0
 10
459.6707769246448
 20
392.6645742151267
 30
0.0
 10
473.2878249538389
 20
412.2527964537171
 30
0.0
 10
477.9840645752463
 20
418.6239840010505
 30
0.0
 10
487.5785438471369
 20
430.9493597105424
 30
0.0
 10
492.4911134783282
 20
436.9234223531241
 30
0.0
 10
502.5350153744492
 20
448.5137556509161
 30
0.0
 10
507.66611406299
 20
454.1304083263963
 30
0.0
 10
518.1406888188023
 20
465.0163649409197
 30
0.0
 10
523.4987904961507
 20
470.2972044438735
 30
0.0
 10
539.6496872343259
 20
485.39980391883
 30
0.0
 10
550.5841283450047
 20
494.5664867647972
 30
0.0
 10
567.2223529634233
 20
507.0405384054033
 30
0.0
 10
572.8080974034102
 20
510.9845860121712
 30
0.0
 10
584.0591455076121
 20
518.4435548920303
 30
0.0
 10
589.7331130683774
 20
521.9615238231108
 30
0.0
 10
606.6168060762105
 20
531.7095486473685
 30
0.0
 10
617.7728400198728
 20
537.2008385909212
 30
0.0
 10
634.3582693424444
 20
543.9369886281291
 30
0.0
 10
639.8617270527429
 20
545.9297321538105
 30
0.0
 10
650.8171200608649
 20
549.3949444859568
 30
0.0
 10
656.2862743408853
 20
550.8713123815
 30
0.0
 10
672.4942623017914
 20
554.4462291298181
 30
0.0
 10
682.8885049890654
 20
555.6702313131175
 30
0.0
 10
702.8342067421297
 20
555.7415394095219
 30
0.0
 10
712.385265967611
 20
554.5877177509142
 30
0.0
 10
725.9878614732687
 20
550.8152841557577
 30
0.0
 10
730.4082962481216
 20
549.2048207163828
 30
0.0
 10
738.7823125829998
 20
545.3204674594505
 30
0.0
 10
742.7623595192567
 20
543.0425086274533
 30
0.0
 10
750.2902746240685
 20
537.7854067942811
 30
0.0
 10
753.8377478010825
 20
534.805622942986
 30
0.0
 10
760.4656985128203
 20
528.0883827772392
 30
0.0
 10
763.5619438252481
 20
524.323320442865
 30
0.0
 10
771.868003382611
 20
512.0951945874532
 30
0.0
 10
776.1725185198522
 20
502.6710450861472
 30
0.0
 10
779.894235797599
 20
489.1791739099896
 30
0.0
 10
780.5546453393247
 20
486.3941964707974
 30
0.0
 10
781.7005038238547
 20
480.6437168468923
 30
0.0
 10
782.1860860128953
 20
477.6711552266286
 30
0.0
 10
783.3515553993045
 20
468.624228143904
 30
0.0
 10
783.7515158975866
 20
462.3777015738376
 30
0.0
 10
783.8138793467109
 20
449.4635736054175
 30
0.0
 10
783.4761685130154
 20
442.795907246974
 30
0.0
 10
782.052461811124
 20
429.0333753325382
 30
0.0
 10
780.9551836108077
 20
421.904368740221
 30
0.0
 10
776.6410173709875
 20
400.4907148837591
 30
0.0
 10
772.4085599010599
 20
386.0005946771963
 30
0.0
 10
761.3882435030666
 20
356.616510024689
 30
0.0
 10
754.8054211701084
 20
342.2572694196774
 30
0.0
 10
745.4087512397015
 20
324.6728847201619
 30
0.0
 10
743.4703601215942
 20
321.1744026933237
 30
0.0
 10
739.4773134519361
 20
314.2136522868794
 30
0.0
 10
737.4214215658715
 20
310.7500307762178
 30
0.0
 10
731.143726312307
 20
300.5126131593997
 30
0.0
 10
726.7926398663379
 20
293.8574069728511
 30
0.0
 10
717.7826611500078
 20
280.8618161921942
 30
0.0
 10
713.1240625930201
 20
274.5211311901511
 30
0.0
 10
703.5134231933504
 20
262.1398918540082
 30
0.0
 10
698.541063086928
 20
256.0770556205898
 30
0.0
 10
683.3469363436824
 20
238.5113188860356
 30
0.0
 10
672.8978773863709
 20
227.6628113216568
 30
0.0
 10
656.7877493257214
 20
212.5672764337658
 30
0.0
 10
651.3445194966642
 20
207.7327969228163
 30
0.0
 10
640.3133885287266
 20
198.4539763536635
 30
0.0
 10
634.7225579446202
 20
194.009931845243
 30
0.0
 10
617.9871822933688
 20
181.4547822511182
 30
0.0
 10
606.795765906478
 20
174.0373834328853
 30
0.0
 10
589.9584001778979
 20
164.2986990677339
 30
0.0
 10
584.3375015208765
 20
161.2856365933193
 30
0.0
 10
573.0785435523526
 20
155.733404673296
 30
0.0
 10
567.4193968283724
 20
153.1867962563616
 30
0.0
 10
550.6630930976794
 20
146.3868712842286
 30
0.0
 10
539.7350159190148
 20
142.934849668097
 30
0.0
 10
518.3705894126034
 20
138.2206913818086
 30
0.0
 10
507.9346203695747
 20
136.9602482902826
 30
0.0
 10
492.6954674486501
 20
136.9168771982884
 30
0.0
 10
487.7271249230606
 20
137.2160848921345
 30
0.0
 10
478.1167707041741
 20
138.4515814856331
 30
0.0
 10
473.4590076521206
 20
139.3869399464752
 30
0.0
 10
464.4511050652258
 20
141.9204454618028
 30
0.0
 10
460.1012370766065
 20
143.5191775747395
 30
0.0
 10
453.8249685091386
 20
146.4527520770322
 30
0.0
 10
451.774319285883
 20
147.5198952181808
 30
0.0
 10
447.7599619024735
 20
149.8414999001414
 30
0.0
 10
445.7973100248363
 20
151.0962672705377
 30
0.0
 10
436.3222267314112
 20
157.7805318069511
 30
0.0
 10
429.7215384923908
 20
164.4795968493724
 30
0.0
 10
422.8252440155974
 20
174.7228828236593
 30
0.0
 10
421.5146567613339
 20
176.8663146822096
 30
0.0
 10
419.0376447031419
 20
181.3521389531834
 30
0.0
 10
417.8753957871031
 20
183.6884909127322
 30
0.0
 10
414.6583181503001
 20
190.8999077604008
 30
0.0
 10
412.8561455725393
 20
196.0058973104285
 30
0.0
 10
409.9425081657678
 20
206.8195249734825
 30
0.0
 10
408.8311846420225
 20
212.5272861720107
 30
0.0
 10
407.7054734877582
 20
221.5604107407827
 30
0.0
 10
407.4207494672013
 20
224.6502946323506
 30
0.0
 10
407.0387852105504
 20
230.9933722230166
 30
0.0
 10
406.9425163498018
 20
234.2492696801796
 30
0.0
 10
406.9425161608743
 20
237.5337867959553
 30
0.0
  0
SPLINE
  5
115
330
1F
100
AcDbEntity
  8
WIND
  6
Continuous
 62
     7
100
AcDbSpline
210
0.0
220
0.0
230
1.0
 70
     8
 71
     3
 72
    12
 73
     8
 74
     0
 42
0.0000000000112427
 43
0.0000000001
 40
0.0702440253973608
 40
0.0702440253973608
 40
0.0702440253973608
 40
0.0702440253973608
 40
0.0703125000000002
 40
0.0703125000000002
 40
0.0781250000000002
 40
0.0781250000000002
 40
0.0869378141708032
 40
0.0869378141708032
 40
0.0869378141708032
 40
0.0869378141708032
 10
428.8598063140965
 20
172.0186252530061
 30
0.0
 10
428.8728857826181
 20
172.0026372243165
 30
0.0
 10
428.8859707702668
 20
171.9866554769108
 30
0.0
 10
430.3926015831584
 20
170.1479847299382
 30
0.0
 10
431.9627107524755
 20
168.4024624518425
 30
0.0
 10
435.4291206570994
 20
164.8881982450849
 30
0.0
 10
437.3387678616301
 20
163.1462168661777
 30
0.0
 10
439.3172659114824
 20
161.5195220378532
 30
0.0
  0
SPLINE
  5
116
330
1F
100
AcDbEntity
  8
WIND
  6
Continuous
 62
     7
100
AcDbSpline
210
0.0
220
0.0
230
1.0
 70
     8
 71
     3
 72
    68
 73
    64
 74
     0
 42
0.0000000000084372
 43
0.0000000001
 40
0.0869378141708032
 40
0.0869378141708032
 40
0.0869378141708032
 40
0.0869378141708032
 40
0.0937500000000003
 40
0.0937500000000003
 40
0.1093750000000004
 40
0.1093750000000004
 40
0.1250000000000005
 40
0.1250000000000005
 40
0.1562500000000006
 40
0.1562500000000006
 40
0.1718750000000006
 40
0.1718750000000006
 40
0.1875000000000007
 40
0.1875000000000007
 40
0.2187500000000008
 40
0.2187500000000008
 40
0.2343750000000009
 40
0.2343750000000009
 40
0.2500000000000009
 40
0.2500000000000009
 40
0.281250000000001
 40
0.281250000000001
 40
0.2968750000000011
 40
0.2968750000000011
 40
0.3125000000000011
 40
0.3125000000000011
 40
0.3437500000000012
 40
0.3437500000000012
 40
0.3593750000000013
 40
0.3593750000000013
 40
0.3671875000000013
 40
0.3671875000000013
 40
0.3750000000000013
 40
0.3750000000000013
 40
0.4062500000000014
 40
0.4062500000000014
 40
0.4218750000000014
 40
0.4218750000000014
 40
0.4375000000000015
 40
0.4375000000000015
 40
0.4687500000000016
 40
0.4687500000000016
 40
0.4765625000000016
 40
0.4765625000000016
 40
0.4843750000000016
 40
0.4843750000000016
 40
0.5000000000000017
 40
0.5000000000000017
 40
0.5156250000000017
 40
0.5156250000000017
 40
0.5312500000000018
 40
0.5312500000000018
 40
0.5468750000000018
 40
0.5468750000000018
 40
0.5625000000000019
 40
0.5625000000000019
 40
0.5937500000000019
 40
0.5937500000000019
 40
0.6015625000000019
 40
0.6015625000000019
 40
0.6093750000000019
 40
0.6093750000000019
 40
0.6159487414443944
 40
0.6159487414443944
 40
0.6159487414443944
 40
0.6159487414443944
 10
439.3172659114824
 20
161.5195220378532
 30
0.0
 10
440.8466180704045
 20
160.2621089977992
 30
0.0
 10
442.4171091624423
 20
159.0735805977434
 30
0.0
 10
447.7202770065748
 20
155.3773281473042
 30
0.0
 10
451.6213652591836
 20
153.1515204490544
 30
0.0
 10
459.8187095770471
 20
149.3612381097145
 30
0.0
 10
464.1361652569149
 20
147.7933837247425
 30
0.0
 10
477.4736549818061
 20
144.1092522745698
 30
0.0
 10
486.8814669608666
 20
142.97657819176
 30
0.0
 10
501.6870565569593
 20
143.0559611464378
 30
0.0
 10
506.7506655566613
 20
143.3820662786027
 30
0.0
 10
517.0530803856174
 20
144.6142872639593
 30
0.0
 10
522.2579080312173
 20
145.5152818651962
 30
0.0
 10
538.0245223021311
 20
149.0261887761259
 30
0.0
 10
548.736393604261
 20
152.4331910880755
 30
0.0
 10
565.0947225704116
 20
159.0868962375527
 30
0.0
 10
570.6166869014141
 20
161.5739416224647
 30
0.0
 10
581.6481457155912
 20
167.0158737371849
 30
0.0
 10
587.1500793557761
 20
169.9648707887874
 30
0.0
 10
603.6153897774361
 20
179.4809972085492
 30
0.0
 10
614.5387071045573
 20
186.7101475891143
 30
0.0
 10
630.8420432391825
 20
198.9035462338828
 30
0.0
 10
636.26274262793
 20
203.1951959577204
 30
0.0
 10
647.0754857164178
 20
212.2520224462262
 30
0.0
 10
652.4287387997986
 20
216.9861056533129
 30
0.0
 10
668.1846528644544
 20
231.6801254471201
 30
0.0
 10
678.3452220954406
 20
242.1786809161854
 30
0.0
 10
693.0424170292584
 20
259.0387941031
 30
0.0
 10
697.8500306602468
 20
264.8459487781655
 30
0.0
 10
704.9142714529886
 20
273.8577210231156
 30
0.0
 10
707.2444830802946
 20
276.9118323824812
 30
0.0
 10
711.8535573011578
 20
283.1250886978818
 30
0.0
 10
714.1361212680448
 20
286.289955056499
 30
0.0
 10
725.2944978161202
 20
302.218144071669
 30
0.0
 10
733.5009960809255
 20
315.4037064747727
 30
0.0
 10
744.6242838392176
 20
335.911842311185
 30
0.0
 10
748.1346253172686
 20
342.8755597334604
 30
0.0
 10
754.705121890974
 20
357.0546186740562
 30
0.0
 10
757.7029824010968
 20
364.1338372905005
 30
0.0
 10
765.8246486395759
 20
385.3403486276013
 30
0.0
 10
770.0866549758964
 20
399.4368863060471
 30
0.0
 10
773.7848156127827
 20
417.0000785810697
 30
0.0
 10
774.4435506682428
 20
420.5226857197021
 30
0.0
 10
775.5707722696047
 20
427.4530982800143
 30
0.0
 10
776.0419286442622
 20
430.8703521653396
 30
0.0
 10
777.1815343237781
 20
440.9800951937689
 30
0.0
 10
777.5767795887645
 20
447.5309152478503
 30
0.0
 10
777.6382718751075
 20
460.2545905149774
 30
0.0
 10
777.3045054255605
 20
466.4274390430759
 30
0.0
 10
775.8809169148706
 20
478.3810917362968
 30
0.0
 10
774.8018901316065
 20
484.0543360267214
 30
0.0
 10
771.9684018716051
 20
494.7332454772853
 30
0.0
 10
770.2120581323763
 20
499.7556954700592
 30
0.0
 10
766.0403454569902
 20
509.1851215466336
 30
0.0
 10
763.6069692837979
 20
513.6149087980668
 30
0.0
 10
755.4979803235942
 20
525.7288335238148
 30
0.0
 10
749.0221664580027
 20
532.3214524896723
 30
0.0
 10
739.7281099021318
 20
538.8977699542783
 30
0.0
 10
737.8054888709704
 20
540.1303823616298
 30
0.0
 10
733.8795329198568
 20
542.4083148443398
 30
0.0
 10
731.8722406361013
 20
543.4568280728315
 30
0.0
 10
728.0977744387873
 20
545.2280450645549
 30
0.0
 10
726.3430021296342
 20
545.9760703733185
 30
0.0
 10
724.5589686637293
 20
546.6643518220052
 30
0.0
  0
SPLINE
  5
117
330
1F
100
AcDbEntity
  8
WIND
  6
Continuous
 62
     7
100
AcDbSpline
210
0.0
220
0.0
230
1.0
 70
     8
 71
     3
 72
    10
 73
     6
 74
     0
 42
0.0000000000112768
 43
0.0000000001
 40
0.6159487414443944
 40
0.6159487414443944
 40
0.6159487414443944
 40
0.6159487414443944
 40
0.6250000000000019
 40
0.6250000000000019
 40
0.6358787963947764
 40
0.6358787963947764
 40
0.6358787963947764
 40
0.6358787963947764
 10
724.5589686637293
 20
546.6643518220052
 30
0.0
 10
722.1025671900242
 20
547.6120333521948
 30
0.0
 10
719.5906923916064
 20
548.446452423974
 30
0.0
 10
713.9421200877767
 20
550.0434674733981
 30
0.0
 10
710.7818147027696
 20
550.7578542155458
 30
0.0
 10
707.5462603747263
 20
551.3185472045406
 30
0.0
  0
SPLINE
  5
118
330
1F
100
AcDbEntity
  8
WIND
  6
Continuous
 62
     7
100
AcDbSpline
210
0.0
220
0.0
230
1.0
 70
     8
 71
     3
 72
    68
 73
    64
 74
     0
 42
0.0000000000087048
 43
0.0000000001
 40
0.4024425327290738
 40
0.4024425327290738
 40
0.4024425327290738
 40
0.4024425327290738
 40
0.4062500000000023
 40
0.4062500000000023
 40
0.4218750000000024
 40
0.4218750000000024
 40
0.4375000000000024
 40
0.4375000000000024
 40
0.4531250000000024
 40
0.4531250000000024
 40
0.4609375000000024
 40
0.4609375000000024
 40
0.4687500000000024
 40
0.4687500000000024
 40
0.5000000000000024
 40
0.5000000000000024
 40
0.5078125000000024
 40
0.5078125000000024
 40
0.5156250000000023
 40
0.5156250000000023
 40
0.5312500000000023
 40
0.5312500000000023
 40
0.5390625000000023
 40
0.5390625000000023
 40
0.5468750000000023
 40
0.5468750000000023
 40
0.5625000000000023
 40
0.5625000000000023
 40
0.5781250000000023
 40
0.5781250000000023
 40
0.5859375000000023
 40
0.5859375000000023
 40
0.5937500000000022
 40
0.5937500000000022
 40
0.6250000000000022
 40
0.6250000000000022
 40
0.6406250000000021
 40
0.6406250000000021
 40
0.656250000000002
 40
0.656250000000002
 40
0.6718750000000019
 40
0.6718750000000019
 40
0.6875000000000019
 40
0.6875000000000019
 40
0.7187500000000017
 40
0.7187500000000017
 40
0.7343750000000016
 40
0.7343750000000016
 40
0.7500000000000014
 40
0.7500000000000014
 40
0.7812500000000013
 40
0.7812500000000013
 40
0.7968750000000012
 40
0.7968750000000012
 40
0.8125000000000011
 40
0.8125000000000011
 40
0.843750000000001
 40
0.843750000000001
 40
0.8750000000000008
 40
0.8750000000000008
 40
0.8906250000000007
 40
0.8906250000000007
 40
0.8952593349093988
 40
0.8952593349093988
 40
0.8952593349093988
 40
0.8952593349093988
 10
691.837933623984
 20
552.7464544246583
 30
0.0
 10
692.717494959719
 20
552.1941668113105
 30
0.0
 10
693.5865514181869
 20
551.6218152877943
 30
0.0
 10
697.9676260753606
 20
548.5967307278995
 30
0.0
 10
701.3190416684325
 20
545.8015444933694
 30
0.0
 10
707.4753320455934
 20
539.5949049176094
 30
0.0
 10
710.300307882215
 20
536.1747206096157
 30
0.0
 10
715.422788579686
 20
528.673053312068
 30
0.0
 10
717.7198573427114
 20
524.5909596328835
 30
0.0
 10
720.7392243934358
 20
517.9319563779336
 30
0.0
 10
721.6773172328054
 20
515.6135467534167
 30
0.0
 10
723.3825221471302
 20
510.849756604692
 30
0.0
 10
724.1515770278164
 20
508.4023774496007
 30
0.0
 10
727.5820106452053
 20
495.840053217434
 30
0.0
 10
729.0139494976828
 20
484.7602897611611
 30
0.0
 10
729.0586415881404
 20
469.5380525576797
 30
0.0
 10
728.9782744345556
 20
466.4245307967937
 30
0.0
 10
728.6435568133456
 20
460.1591990591936
 30
0.0
 10
728.389451849218
 20
456.994990907136
 30
0.0
 10
727.3728616018946
 20
447.4099597019663
 30
0.0
 10
726.3571968744542
 20
440.8971305790021
 30
0.0
 10
724.3371027043158
 20
430.9478179615402
 30
0.0
 10
723.5808189064437
 20
427.6013210004551
 30
0.0
 10
721.9019855336046
 20
420.8481310476205
 30
0.0
 10
720.9768476095171
 20
417.4342939723302
 30
0.0
 10
717.9914591761656
 20
407.237535475289
 30
0.0
 10
715.7135170637388
 20
400.4588907441022
 30
0.0
 10
710.6202328429033
 20
386.9379151039744
 30
0.0
 10
707.8053041766797
 20
380.1955804285327
 30
0.0
 10
703.195071215615
 20
370.1085503546007
 30
0.0
 10
701.5891144599719
 20
366.7421934847092
 30
0.0
 10
698.2799417577905
 20
360.0813542095131
 30
0.0
 10
696.5749853059507
 20
356.7824338555521
 30
0.0
 10
687.8104290620623
 20
340.4377643645145
 30
0.0
 10
680.0404167380402
 20
327.8362497649902
 30
0.0
 10
667.352625066981
 20
309.5796716095881
 30
0.0
 10
662.9806248982064
 20
303.6479668651481
 30
0.0
 10
654.0445166737126
 20
292.1688583045341
 30
0.0
 10
649.468641516936
 20
286.6052430299659
 30
0.0
 10
640.112213504352
 20
275.8116339500781
 30
0.0
 10
635.3318950695246
 20
270.5812809942991
 30
0.0
 10
625.5726769079532
 20
260.4443413488581
 30
0.0
 10
620.5824218125181
 20
255.5293045799413
 30
0.0
 10
605.5415624268071
 20
241.4745450814277
 30
0.0
 10
595.3554420901463
 20
232.9418898468452
 30
0.0
 10
579.8515392120794
 20
221.3279764413366
 30
0.0
 10
574.6458667714444
 20
217.6553785541043
 30
0.0
 10
564.1589151744608
 20
210.7087293654799
 30
0.0
 10
558.8718060445203
 20
207.43325625246
 30
0.0
 10
543.1366032849196
 20
198.3547008988194
 30
0.0
 10
532.73460606532
 20
193.2364844504054
 30
0.0
 10
517.2629090013054
 20
186.9522103728745
 30
0.0
 10
512.1277961166774
 20
185.0919535724727
 30
0.0
 10
501.9031555233763
 20
181.8545263041068
 30
0.0
 10
496.7977139483326
 20
180.4737405799097
 30
0.0
 10
481.6621680449176
 20
177.1247394546336
 30
0.0
 10
471.949351673965
 20
175.9693273133086
 30
0.0
 10
453.2988844359948
 20
175.8698079438445
 30
0.0
 10
444.3616086644814
 20
176.9267307033094
 30
0.0
 10
431.6236591573021
 20
180.4142334400228
 30
0.0
 10
427.4791033091874
 20
181.9066237314802
 30
0.0
 10
422.3863375380785
 20
184.2445526737031
 30
0.0
 10
421.2383361669424
 20
184.8069661363096
 30
0.0
 10
420.1075383124822
 20
185.3973589432726
 30
0.0
  0
SPLINE
  5
119
330
1F
100
AcDbEntity
  8
WIND
  6
Continuous
 62
     7
100
AcDbSpline
210
0.0
220
0.0
230
1.0
 70
     8
 71
     3
 72
    68
 73
    64
 74
     0
 42
0.0000000000097052
 43
0.0000000001
 40
0.0905955588941137
 40
0.0905955588941137
 40
0.0905955588941137
 40
0.0905955588941137
 40
0.09375
 40
0.09375
 40
0.1093750000000001
 40
0.1093750000000001
 40
0.1250000000000001
 40
0.1250000000000001
 40
0.1562500000000001
 40
0.1562500000000001
 40
0.1718750000000001
 40
0.1718750000000001
 40
0.1875000000000002
 40
0.1875000000000002
 40
0.2187500000000003
 40
0.2187500000000003
 40
0.2343750000000003
 40
0.2343750000000003
 40
0.2500000000000003
 40
0.2500000000000003
 40
0.2812500000000004
 40
0.2812500000000004
 40
0.2968750000000004
 40
0.2968750000000004
 40
0.3125000000000006
 40
0.3125000000000006
 40
0.3437500000000006
 40
0.3437500000000006
 40
0.3750000000000007
 40
0.3750000000000007
 40
0.3906250000000007
 40
0.3906250000000007
 40
0.4062500000000007
 40
0.4062500000000007
 40
0.4218750000000007
 40
0.4218750000000007
 40
0.4375000000000008
 40
0.4375000000000008
 40
0.4687500000000008
 40
0.4687500000000008
 40
0.4765625000000008
 40
0.4765625000000008
 40
0.4843750000000008
 40
0.4843750000000008
 40
0.5000000000000008
 40
0.5000000000000008
 40
0.5156250000000008
 40
0.5156250000000008
 40
0.5234375000000008
 40
0.5234375000000008
 40
0.5312500000000008
 40
0.5312500000000008
 40
0.5468750000000008
 40
0.5468750000000008
 40
0.5546875000000008
 40
0.5546875000000008
 40
0.5625000000000008
 40
0.5625000000000008
 40
0.5937500000000007
 40
0.5937500000000007
 40
0.6093750000000007
 40
0.6093750000000007
 40
0.6161176166328693
 40
0.6161176166328693
 40
0.6161176166328693
 40
0.6161176166328693
 10
410.711997182872
 20
213.6511633323215
 30
0.0
 10
411.3573470489011
 20
213.1917433048773
 30
0.0
 10
412.0098251283354
 20
212.7451973699167
 30
0.0
 10
415.9345756928419
 20
210.162913314779
 30
0.0
 10
419.3737239380916
 20
208.3205197175512
 30
0.0
 10
426.5778234259384
 20
205.210105971369
 30
0.0
 10
430.3544735318249
 20
203.940465964785
 30
0.0
 10
442.0817969146037
 20
200.9825641907879
 30
0.0
 10
450.3180193662217
 20
200.1531183297736
 30
0.0
 10
463.2238575022302
 20
200.4163113610473
 30
0.0
 10
467.6182534044919
 20
200.7567246167083
 30
0.0
 10
476.5876456006347
 20
201.9311647902114
 30
0.0
 10
481.1417419392733
 20
202.7643475594582
 30
0.0
 10
494.8780525825276
 20
205.9411578684825
 30
0.0
 10
504.1835474871229
 20
208.9592616400668
 30
0.0
 10
518.3531552672429
 20
214.7724719643388
 30
0.0
 10
523.1117622940981
 20
216.9256273076253
 30
0.0
 10
532.7002171610073
 20
221.6654033116992
 30
0.0
 10
537.502533985115
 20
224.2394287442356
 30
0.0
 10
551.8235335642826
 20
232.5031821655612
 30
0.0
 10
561.302594700294
 20
238.7512820899588
 30
0.0
 10
575.4186807500341
 20
249.2328867397177
 30
0.0
 10
580.1067830046028
 20
252.9135634334512
 30
0.0
 10
589.4473118200386
 20
260.661047406453
 30
0.0
 10
594.1204126021388
 20
264.7471694553583
 30
0.0
 10
607.9065797068885
 20
277.4561733571072
 30
0.0
 10
616.7743083450586
 20
286.5057223694638
 30
0.0
 10
633.8413405127004
 20
305.7984485765713
 30
0.0
 10
642.040458675552
 20
316.0419567864483
 30
0.0
 10
653.7594679778101
 20
332.4423507607736
 30
0.0
 10
657.5757185354882
 20
338.0990075008909
 30
0.0
 10
664.8221429735005
 20
349.5305862820008
 30
0.0
 10
668.274695002151
 20
355.333919088878
 30
0.0
 10
674.821251157199
 20
367.1245087227153
 30
0.0
 10
677.9151290000873
 20
373.1118303292225
 30
0.0
 10
683.710740910513
 20
385.2876312094828
 30
0.0
 10
686.4261036181802
 20
391.5142638324143
 30
0.0
 10
693.7272698662471
 20
410.0341774096162
 30
0.0
 10
697.5398139037362
 20
422.2775316438041
 30
0.0
 10
700.8542394040653
 20
437.4396740006091
 30
0.0
 10
701.4437002777104
 20
440.4649156256681
 30
0.0
 10
702.4684454042927
 20
446.5003078938258
 30
0.0
 10
702.9033489308678
 20
449.5136313699514
 30
0.0
 10
703.9491401115447
 20
458.3691355429889
 30
0.0
 10
704.3120204258139
 20
464.0813365115333
 30
0.0
 10
704.3815937979681
 20
475.1299263393142
 30
0.0
 10
704.0881804789491
 20
480.4662542742821
 30
0.0
 10
703.1469186772199
 20
488.183731816417
 30
0.0
 10
702.7474111656143
 20
490.7178184501081
 30
0.0
 10
701.7882262300959
 20
495.635550935131
 30
0.0
 10
701.2299181075485
 20
498.0166490075517
 30
0.0
 10
699.3278914146958
 20
504.9355744851703
 30
0.0
 10
697.7580219619629
 20
509.2499731411806
 30
0.0
 10
694.9723640089254
 20
515.2959034525317
 30
0.0
 10
693.9718872327755
 20
517.2401551675823
 30
0.0
 10
691.8286241899674
 20
520.988062058238
 30
0.0
 10
690.6819305758348
 20
522.7963528672133
 30
0.0
 10
684.6605728272885
 20
531.3974514687658
 30
0.0
 10
678.9181005546153
 20
536.9387240259778
 30
0.0
 10
669.095252637736
 20
543.5002597179024
 30
0.0
 10
665.6125478506052
 20
545.391598729702
 30
0.0
 10
660.4473811236503
 20
547.6522226879354
 30
0.0
 10
658.8639939588838
 20
548.2775894471688
 30
0.0
 10
657.2550622375006
 20
548.8486260172875
 30
0.0
  0
SPLINE
  5
11A
330
1F
100
AcDbEntity
  8
WIND
  6
Continuous
 62
     7
100
AcDbSpline
210
0.0
220
0.0
230
1.0
 70
    12
 71
     2
 72
     8
 73
     5
 74
     0
 42
0.0000000001267671
 43
0.0000000001
 40
0.0
 40
0.0
 40
0.0
 40
0.5
 40
0.5
 40
1.0
 40
1.0
 40
1.0
 10
519.2087906904837
 20
361.41925810693
 30
0.0
 41
1.0
 10
531.6963239680551
 20
354.1744667066337
 30
0.0
 41
0.7070291196506756
 10
544.2115208417899
 20
375.822654936358
 30
0.0
 41
1.0
 10
556.7267177155247
 20
397.4708431660824
 30
0.0
 41
0.7070291196506688
 10
544.2336865637301
 20
404.7061246068276
 30
0.0
 41
1.0
  0
ELLIPSE
  5
11B
330
1F
100
AcDbEntity
  8
WIND
  6
Continuous
 62
     7
100
AcDbEllipse
 10
542.3305832071
 20
376.9373770901
 30
0.0
 11
-19.99999999999829
 21
-34.64101615137856
 31
0.0
210
0.0
220
0.0
230
1.0
 40
0.5773502692
 41
0.0
 42
6.283185307179586
  0
LINE
  5
11C
330
1F
100
AcDbEntity
  8
WIND
  6
Continuous
 62
     7
100
AcDbLine
 10
740.4098820304
 20
551.1131078648
 30
0.0
 11
660.5068157563
 21
597.2451646872
 31
0.0
  0
LINE
  5
11D
330
1F
100
AcDbEntity
  8
WIND
  6
Continuous
 62
     7
100
AcDbLine
 10
363.3431674759
 20
191.7389424729
 30
0.0
 11
443.2462337499
 21
145.6068856505
 31
0.0
  0
SPLINE
  5
11E
330
1F
100
AcDbEntity
  8
WIND
  6
Continuous
 62
     7
100
AcDbSpline
210
0.0
220
0.0
230
1.0
 70
     8
 71
     3
 72
    66
 73
    62
 74
     0
 42
0.0000000000199434
 43
0.0000000001
 40
0.0
 40
0.0
 40
0.0
 40
0.0
 40
0.0151921645499209
 40
0.0307762753792429
 40
0.0465568819812358
 40
0.0625785921311382
 40
0.078842071058827
 40
0.0953551256442772
 40
0.1121188726165715
 40
0.1291276369573799
 40
0.146369040905174
 40
0.1638243868909124
 40
0.1814692692981153
 40
0.1992750496738348
 40
0.2173770981146708
 40
0.2355951335319064
 40
0.253956987073272
 40
0.2724524142104806
 40
0.2910701600780521
 40
0.3097979393632237
 40
0.328622582310963
 40
0.3475301478665884
 40
0.3665053999730006
 40
0.3854764955925422
 40
0.4044658477200793
 40
0.4234429251015178
 40
0.4423943157430307
 40
0.4613071909510865
 40
0.4801694692384165
 40
0.4989699734404214
 40
0.5177052714434588
 40
0.5362849762802325
 40
0.5548116540695992
 40
0.5732552393695597
 40
0.5915824368272187
 40
0.6097631885967263
 40
0.6277711280366874
 40
0.6455839028039437
 40
0.663183378281251
 40
0.6805714306673378
 40
0.6977732888353739
 40
0.7148836693124618
 40
0.7318723099270715
 40
0.7487068672223857
 40
0.765360797639552
 40
0.7818135155172141
 40
0.7980503378511352
 40
0.8140622797656636
 40
0.8298457378071222
 40
0.8454212379445689
 40
0.860814754503518
 40
0.876175583246406
 40
0.8914406361378204
 40
0.90653451996749
 40
0.9213895648463747
 40
0.9360382213308871
 40
0.9507555396459448
 40
0.9653738790098367
 40
0.9799215803138434
 40
0.9944279916776364
 40
1.0
 40
1.0
 40
1.0
 40
1.0
 10
660.2939883128184
 20
597.3622083990953
 30
0.0
 10
658.4989412331126
 20
598.3560977354291
 30
0.0
 10
655.4261975242983
 20
600.0396239328874
 30
0.0
 10
650.1068838142354
 20
602.4359635303963
 30
0.0
 10
644.6797764520114
 20
604.4916128425072
 30
0.0
 10
638.9933897299827
 20
606.2520015770949
 30
0.0
 10
633.0979269819371
 20
607.6942105012474
 30
0.0
 10
626.9864026703431
 20
608.8156620802246
 30
0.0
 10
620.6690081245526
 20
609.6082379570748
 30
0.0
 10
614.1534394328987
 20
610.0656747185685
 30
0.0
 10
607.4508212317791
 20
610.1818444984553
 30
0.0
 10
600.5747290561144
 20
609.9518848221139
 30
0.0
 10
593.5393147500037
 20
609.3716350258821
 30
0.0
 10
586.3447283053878
 20
608.4377888099277
 30
0.0
 10
579.0038186706347
 20
607.1497180462468
 30
0.0
 10
571.5257267642843
 20
605.5035170878285
 30
0.0
 10
563.9396456531246
 20
603.5035325447012
 30
0.0
 10
556.251881863789
 20
601.1496022090223
 30
0.0
 10
548.4743563617001
 20
598.4436837980661
 30
0.0
 10
540.619591652907
 20
595.3886870602227
 30
0.0
 10
532.7005939118535
 20
591.9884265973711
 30
0.0
 10
524.7312083461675
 20
588.2479903777737
 30
0.0
 10
516.7327595490107
 20
584.1765277201351
 30
0.0
 10
508.7227297895691
 20
579.7820171173915
 30
0.0
 10
500.7205675044315
 20
575.0754739006189
 30
0.0
 10
492.7376943582109
 20
570.0639301861494
 30
0.0
 10
484.7905162200847
 20
564.7583461581332
 30
0.0
 10
476.8929044200557
 20
559.1688816096273
 30
0.0
 10
469.0583805402977
 20
553.3062274287605
 30
0.0
 10
461.2993424578706
 20
547.1806860013656
 30
0.0
 10
453.6381917897199
 20
540.8122622238147
 30
0.0
 10
446.0832580909269
 20
534.2057551362915
 30
0.0
 10
438.6452605820374
 20
527.3752803613676
 30
0.0
 10
431.3270614560319
 20
520.3254901059096
 30
0.0
 10
424.1493843203726
 20
513.0781226615921
 30
0.0
 10
417.1321022060172
 20
505.655493075401
 30
0.0
 10
410.2933217779341
 20
498.0795487486549
 30
0.0
 10
403.6492547922811
 20
490.3715176566124
 30
0.0
 10
397.2122405403199
 20
482.5494461365306
 30
0.0
 10
390.9887485617967
 20
474.6243713940469
 30
0.0
 10
384.972953682526
 20
466.5897115950518
 30
0.0
 10
379.1600053013499
 20
458.44668775151
 30
0.0
 10
373.5535998522433
 20
450.2030307752043
 30
0.0
 10
368.1707190442563
 20
441.8863438923536
 30
0.0
 10
363.0265646565437
 20
433.5233628725317
 30
0.0
 10
358.1337247105443
 20
425.1385706829952
 30
0.0
 10
353.5022978781387
 20
416.7540190670304
 30
0.0
 10
349.1402165064612
 20
408.3892215120735
 30
0.0
 10
345.0513978247367
 20
400.05795395098
 30
0.0
 10
341.238060624458
 20
391.7674404550086
 30
0.0
 10
337.6874083284716
 20
383.499044994831
 30
0.0
 10
334.3912161116453
 20
375.2484021306307
 30
0.0
 10
331.3543369676042
 20
367.0279661792834
 30
0.0
 10
328.5949374337661
 20
358.8891429657224
 30
0.0
 10
326.1265033467772
 20
350.8669339104528
 30
0.0
 10
323.9324965583435
 20
342.9325386831705
 30
0.0
 10
322.0093859251
 20
335.0807099626043
 30
0.0
 10
320.354286876381
 20
327.278444270006
 30
0.0
 10
318.9883397524491
 20
319.6507564191494
 30
0.0
 10
318.0915655290726
 20
313.4566451321201
 30
0.0
 10
317.7076394170039
 20
310.2110630117185
 30
0.0
 10
317.5841273096456
 20
309.1548488608467
 30
0.0
  0
SPLINE
  5
11F
330
1F
100
AcDbEntity
  8
WIND
  6
Continuous
 62
     7
100
AcDbSpline
210
0.0
220
0.0
230
1.0
 70
     8
 71
     3
 72
    28
 73
    24
 74
     0
 42
0.0000000000741567
 43
0.0000000001
 40
0.0
 40
0.0
 40
0.0
 40
0.0
 40
0.0242816389134412
 40
0.0701030465529768
 40
0.1156819073715864
 40
0.1611529242945845
 40
0.2066377945997355
 40
0.2522265665819316
 40
0.2980665561077508
 40
0.3436366251328278
 40
0.3892801569565634
 40
0.4353465925064505
 40
0.4816529087738586
 40
0.5279792041291107
 40
0.5740779796657705
 40
0.6198963598143266
 40
0.666330935301555
 40
0.7130804099416759
 40
0.7601579857119602
 40
0.8075759852926747
 40
0.855347015227048
 40
0.9034831939641258
 40
0.9352968455835551
 40
0.9352968455835551
 40
0.9352968455835551
 40
0.9352968455835551
 10
317.5841273096456
 20
309.1548488608467
 30
0.0
 10
317.4275258648637
 20
307.716700650437
 30
0.0
 10
317.0499587360979
 20
304.1923303959607
 30
0.0
 10
316.5695607201782
 20
297.8881507884075
 30
0.0
 10
316.2939691258214
 20
290.7801138780382
 30
0.0
 10
316.2953613043439
 20
283.7625112815153
 30
0.0
 10
316.5790590025725
 20
276.9084534072566
 30
0.0
 10
317.1438732216722
 20
270.1947612017887
 30
0.0
 10
317.9910907580321
 20
263.64555572272
 30
0.0
 10
319.1232545730973
 20
257.2848809787639
 30
0.0
 10
320.5325181641654
 20
251.110681010731
 30
0.0
 10
322.223997104431
 20
245.1096559523627
 30
0.0
 10
324.1988166960356
 20
239.2966714646379
 30
0.0
 10
326.4521626598926
 20
233.7068741346658
 30
0.0
 10
328.9687968939174
 20
228.3834108759024
 30
0.0
 10
331.7468401011889
 20
223.3055299464926
 30
0.0
 10
334.7910860024849
 20
218.4629358780454
 30
0.0
 10
338.1102767061321
 20
213.8469556825808
 30
0.0
 10
341.6931552753017
 20
209.4780049898678
 30
0.0
 10
345.5313352841034
 20
205.3680541560443
 30
0.0
 10
349.6279367424569
 20
201.5184283730674
 30
0.0
 10
353.4410972902197
 20
198.3797958228421
 30
0.0
 10
355.9692812596522
 20
196.5150685021026
 30
0.0
 10
356.9728965270036
 20
195.8096457650189
 30
0.0
  0
SPLINE
  5
120
330
1F
100
AcDbEntity
  8
WIND
  6
Continuous
 62
     7
100
AcDbSpline
210
0.0
220
0.0
230
1.0
 70
     8
 71
     3
 72
     9
 73
     5
 74
     0
 42
0.0000000000867475
 43
0.0000000001
 40
0.9417796721685489
 40
0.9417796721685489
 40
0.9417796721685489
 40
0.9417796721685489
 40
0.9519947373180125
 40
1.0
 40
1.0
 40
1.0
 40
1.0
 10
357.5859230527258
 20
195.3831369988599
 30
0.0
 10
357.9075302152928
 20
195.1616973446164
 30
0.0
 10
359.7361407315743
 20
193.9235978950748
 30
0.0
 10
361.5131801756518
 20
192.8445324744837
 30
0.0
 10
363.2565179344758
 20
191.7973462197384
 30
0.0
  0
SPLINE
  5
121
330
1F
100
AcDbEntity
  8
WIND
  6
Continuous
 62
     7
100
AcDbSpline
210
0.0
220
0.0
230
1.0
 70
     8
 71
     3
 72
    85
 73
    81
 74
     0
 42
0.0000000000162608
 43
0.0000000001
 40
0.0
 40
0.0
 40
0.0
 40
0.0
 40
0.0007525084642129
 40
0.0134104625307435
 40
0.0262295957421077
 40
0.0391975891336936
 40
0.052296580684178
 40
0.0655031712130375
 40
0.0788119559631824
 40
0.0923453688535078
 40
0.1060875064362216
 40
0.1200076172272573
 40
0.1340895558554012
 40
0.1483139543428864
 40
0.1626587169274016
 40
0.1770993669665751
 40
0.1916094108663726
 40
0.2061648078700287
 40
0.2208277757482291
 40
0.2355945144402714
 40
0.250407292148919
 40
0.265258011634273
 40
0.2801382211776877
 40
0.2950393255236511
 40
0.3099526971424528
 40
0.3248689946918907
 40
0.3397747654343488
 40
0.3546355374485908
 40
0.3694352728229222
 40
0.384166018803876
 40
0.398820948389373
 40
0.4133945679773702
 40
0.4278827782308252
 40
0.4422829133149644
 40
0.4565938376041601
 40
0.4708011018815836
 40
0.4848484266910419
 40
0.4987880289213288
 40
0.512603849715548
 40
0.526282720720984
 40
0.5398146207822545
 40
0.5531926643016902
 40
0.5664130289734333
 40
0.5794748353936935
 40
0.5923826497458626
 40
0.6051259029244427
 40
0.6177549547778156
 40
0.6302692115385677
 40
0.6426614041197485
 40
0.654927378496978
 40
0.667066033964816
 40
0.6790791775861057
 40
0.6909713411468288
 40
0.7027495725984999
 40
0.7144232121769932
 40
0.7259491488234647
 40
0.7374065744568896
 40
0.7487734431444737
 40
0.760081052561251
 40
0.7713627102501026
 40
0.7826544795279247
 40
0.7939777998088848
 40
0.8051136371378693
 40
0.8163660654666846
 40
0.8276712683404119
 40
0.8389550496319811
 40
0.8501436039345588
 40
0.8612255793282277
 40
0.8723849359702008
 40
0.8836477392389162
 40
0.8950119176209334
 40
0.9064728392181868
 40
0.91802320987251
 40
0.9296532245679965
 40
0.9413508241826226
 40
0.9531020581693537
 40
0.9648915393708283
 40
0.9767029623173328
 40
0.9885459368240256
 40
1.0
 40
1.0
 40
1.0
 40
1.0
 10
451.0548226936807
 20
141.6598719650099
 30
0.0
 10
451.1668838685706
 20
141.6056083420091
 30
0.0
 10
452.8874335080498
 20
140.7730455135251
 30
0.0
 10
456.7184026451174
 20
139.3024890346759
 30
0.0
 10
462.1894237232372
 20
137.4529645875148
 30
0.0
 10
467.9530789049246
 20
135.9257694007036
 30
0.0
 10
473.8914375957983
 20
134.7202085987512
 30
0.0
 10
480.0202069272527
 20
133.8459548794529
 30
0.0
 10
486.3360984010555
 20
133.3072736653169
 30
0.0
 10
492.8479212329435
 20
133.1031952299461
 30
0.0
 10
499.5624480161522
 20
133.2396483188889
 30
0.0
 10
506.4632958923676
 20
133.7216988332469
 30
0.0
 10
513.5332399556892
 20
134.5526697458014
 30
0.0
 10
520.7560468675847
 20
135.7344837511751
 30
0.0
 10
528.1137486994653
 20
137.2674947113237
 30
0.0
 10
535.5866555756603
 20
139.150358261354
 30
0.0
 10
543.1547173061206
 20
141.3801092998597
 30
0.0
 10
550.8112503494775
 20
143.9575945092101
 30
0.0
 10
558.5536825632975
 20
146.8795749221123
 30
0.0
 10
566.3751755748293
 20
150.1474069841684
 30
0.0
 10
574.255029804278
 20
153.7548417485258
 30
0.0
 10
582.1717356758621
 20
157.6932352129649
 30
0.0
 10
590.1122741101739
 20
161.9567622293932
 30
0.0
 10
598.0634576275447
 20
166.5388512947194
 30
0.0
 10
606.0118664941633
 20
171.4321051082279
 30
0.0
 10
613.9431452496842
 20
176.627846290389
 30
0.0
 10
621.8384491783692
 20
182.1132741712317
 30
0.0
 10
629.6777459048806
 20
187.8744952078807
 30
0.0
 10
637.4418844892302
 20
193.8966923834083
 30
0.0
 10
645.1167169065405
 20
200.1675727427531
 30
0.0
 10
652.6899998966051
 20
206.6756107958549
 30
0.0
 10
660.1502382321281
 20
213.4092735837569
 30
0.0
 10
667.4867647748241
 20
220.3570777641409
 30
0.0
 10
674.6896819985731
 20
227.5079636636324
 30
0.0
 10
681.747785484806
 20
234.8479017442771
 30
0.0
 10
688.6404856640538
 20
242.3555070436649
 30
0.0
 10
695.3563968831461
 20
250.0158357898543
 30
0.0
 10
701.8852673227667
 20
257.8121115869091
 30
0.0
 10
708.222998636883
 20
265.7364506618731
 30
0.0
 10
714.3560683059428
 20
273.7688643822663
 30
0.0
 10
720.2727374607238
 20
281.8905202913496
 30
0.0
 10
725.9630529329971
 20
290.0838829646996
 30
0.0
 10
731.4187337315153
 20
298.3328328999769
 30
0.0
 10
736.6334297382556
 20
306.6232527968723
 30
0.0
 10
741.6001227261842
 20
314.939404648604
 30
0.0
 10
746.3181550272344
 20
323.2765001593399
 30
0.0
 10
750.7881212994582
 20
331.6276703621119
 30
0.0
 10
755.0095566642249
 20
339.9877038653336
 30
0.0
 10
758.9757246486511
 20
348.339258154184
 30
0.0
 10
762.6802935903282
 20
356.6646881992353
 30
0.0
 10
766.1183775239128
 20
364.948219791811
 30
0.0
 10
769.2863684778024
 20
373.1759401261343
 30
0.0
 10
772.1816846369582
 20
381.3357404715474
 30
0.0
 10
774.8028109957016
 20
389.4171835097023
 30
0.0
 10
777.1445885167392
 20
397.3990614326232
 30
0.0
 10
779.2106105189696
 20
405.2764446286366
 30
0.0
 10
781.0023326834621
 20
413.0389416625587
 30
0.0
 10
782.5205127540207
 20
420.691409915406
 30
0.0
 10
783.765676069919
 20
428.2288796274886
 30
0.0
 10
784.7390790212006
 20
435.658685947287
 30
0.0
 10
785.4444185434537
 20
442.9875185511881
 30
0.0
 10
785.8664205603161
 20
450.1634436019223
 30
0.0
 10
786.0133653603551
 20
457.1943846549322
 30
0.0
 10
785.8907735055533
 20
464.0761903172751
 30
0.0
 10
785.4951438607069
 20
470.8288711809288
 30
0.0
 10
784.8260749622331
 20
477.3966421135689
 30
0.0
 10
783.8830577339081
 20
483.735452659386
 30
0.0
 10
782.6704368790633
 20
489.8492071501254
 30
0.0
 10
781.1897799705629
 20
495.7686935326766
 30
0.0
 10
779.4335887512935
 20
501.5186042833732
 30
0.0
 10
777.4013646833979
 20
507.089590380202
 30
0.0
 10
775.0947075075043
 20
512.4667253469493
 30
0.0
 10
772.5164697971361
 20
517.6345034973401
 30
0.0
 10
769.6711220778801
 20
522.576716487471
 30
0.0
 10
766.563988611317
 20
527.2777460719595
 30
0.0
 10
763.2046883816428
 20
531.7191165112886
 30
0.0
 10
759.5944596443161
 20
535.8939057937655
 30
0.0
 10
755.7707896330951
 20
539.7571279744689
 30
0.0
 10
751.6784005952475
 20
543.378298444291
 30
0.0
 10
749.0673210198942
 20
545.3418342829287
 30
0.0
 10
747.5396850201782
 20
546.4788024841023
 30
0.0
  0
SPLINE
  5
122
330
1F
100
AcDbEntity
  8
WIND
  6
Continuous
 62
     7
100
AcDbSpline
210
0.0
220
0.0
230
1.0
 70
     8
 71
     3
 72
    24
 73
    20
 74
     0
 42
0.0000000000981263
 43
0.0000000001
 40
0.0
 40
0.0
 40
0.0
 40
0.0
 40
0.0557773537709734
 40
0.1185685548857229
 40
0.1808335633902241
 40
0.2424612318783827
 40
0.3032519456917587
 40
0.3630975939058944
 40
0.422065766845688
 40
0.4808793301207439
 40
0.539769302139657
 40
0.5983685509332796
 40
0.6564033155325224
 40
0.7137153267402263
 40
0.7708349143080793
 40
0.8284791368310053
 40
0.8861344470755471
 40
0.9439496870788125
 40
1.0
 40
1.0
 40
1.0
 40
1.0
 10
429.0662777330692
 20
171.8202908541031
 30
0.0
 10
428.0221658813948
 20
173.1219510681144
 30
0.0
 10
426.1570605093444
 20
175.4694552808941
 30
0.0
 10
423.2925364528575
 20
179.7673624843533
 30
0.0
 10
420.6254244010667
 20
184.3662883725857
 30
0.0
 10
418.2021970974502
 20
189.232971381936
 30
0.0
 10
416.0531516998309
 20
194.3001450194953
 30
0.0
 10
414.1801266356258
 20
199.5581823271093
 30
0.0
 10
412.5756989461807
 20
205.01692727887
 30
0.0
 10
411.2258549030175
 20
210.6853797672039
 30
0.0
 10
410.1295387265852
 20
216.5674445053852
 30
0.0
 10
409.2932993251206
 20
222.636644332016
 30
0.0
 10
408.7243558275375
 20
228.8496500091226
 30
0.0
 10
408.4221797504812
 20
235.2008368228612
 30
0.0
 10
408.3750496059628
 20
241.7011245811833
 30
0.0
 10
408.5894521650721
 20
248.383136747296
 30
0.0
 10
409.0646186069363
 20
255.1883793238517
 30
0.0
 10
409.8056542051544
 20
262.2283663645018
 30
0.0
 10
410.4372326335289
 20
266.5547832579914
 30
0.0
 10
410.812527521884
 20
269.0832263998089
 30
0.0
  0
SPLINE
  5
123
330
1F
100
AcDbEntity
  8
WIND
  6
Continuous
 62
     7
100
AcDbSpline
210
0.0
220
0.0
230
1.0
 70
     8
 71
     3
 72
    60
 73
    56
 74
     0
 42
0.0000000000226419
 43
0.0000000001
 40
0.0
 40
0.0
 40
0.0
 40
0.0
 40
0.0084143103078208
 40
0.024356656324278
 40
0.0403187547329587
 40
0.0563661490415576
 40
0.072533070221307
 40
0.0888525350344387
 40
0.1053817274541537
 40
0.1220159555972852
 40
0.1388495412279069
 40
0.155922539212265
 40
0.1731467626133884
 40
0.1904367428189475
 40
0.2078038087581582
 40
0.2254509615959258
 40
0.2433625975310094
 40
0.2615339413092152
 40
0.27995463808351
 40
0.2986085731506264
 40
0.3174736076605425
 40
0.3365214174241158
 40
0.3557174673935282
 40
0.3750334062305258
 40
0.3945484830535509
 40
0.4143853998434535
 40
0.4344395726451135
 40
0.4546964081745785
 40
0.4751368752726225
 40
0.4957382359973144
 40
0.5164742284428879
 40
0.5373153467920325
 40
0.5582321116219116
 40
0.5792464014097539
 40
0.6004192160090663
 40
0.6216310799145245
 40
0.642877410308439
 40
0.6641531367116565
 40
0.6854530001627376
 40
0.706771719405925
 40
0.7281041645774596
 40
0.7494349531892093
 40
0.7706526959743362
 40
0.7917633790620828
 40
0.8127606640146732
 40
0.8336398999591691
 40
0.8543990149468175
 40
0.875038620218226
 40
0.8955620545130132
 40
0.9159753535609079
 40
0.9362825760812096
 40
0.9562943258065317
 40
0.9761982903469336
 40
0.9959512752638527
 40
1.0
 40
1.0
 40
1.0
 40
1.0
 10
410.812527521884
 20
269.0832263998089
 30
0.0
 10
411.0366831213216
 20
270.4762749705973
 30
0.0
 10
411.5937205831214
 20
273.9036847068872
 30
0.0
 10
412.794899540879
 20
280.1944834899919
 30
0.0
 10
414.4276256596283
 20
287.5137856409938
 30
0.0
 10
416.32902625581
 20
294.9864541377714
 30
0.0
 10
418.4855372359272
 20
302.5381547097329
 30
0.0
 10
420.9039678133017
 20
310.1949342193418
 30
0.0
 10
423.5827120909563
 20
317.9335727489689
 30
0.0
 10
426.5238336042913
 20
325.748195712969
 30
0.0
 10
429.7205463759938
 20
333.6280992046844
 30
0.0
 10
433.1730351958306
 20
341.5660706097603
 30
0.0
 10
436.8694984582268
 20
349.5266268319828
 30
0.0
 10
440.7967183796484
 20
357.4692662225145
 30
0.0
 10
444.9565740591114
 20
365.3999543631726
 30
0.0
 10
449.3573415393316
 20
373.3357057167374
 30
0.0
 10
454.0097089785569
 20
381.2896432006975
 30
0.0
 10
458.9064799210268
 20
389.2429668168875
 30
0.0
 10
464.0399670916117
 20
397.1770598727163
 30
0.0
 10
469.4003690606472
 20
405.0711128928675
 30
0.0
 10
474.9755901109949
 20
412.9021899429275
 30
0.0
 10
480.7511235842479
 20
420.6452337602595
 30
0.0
 10
486.7109878497469
 20
428.275203595881
 30
0.0
 10
492.8506213911481
 20
435.7804686572049
 30
0.0
 10
499.1794738530494
 20
443.1739108183853
 30
0.0
 10
505.7010661541903
 20
450.4553535321501
 30
0.0
 10
512.4090701951125
 20
457.6120401227879
 30
0.0
 10
519.2806792979026
 20
464.6154383549726
 30
0.0
 10
526.3017262970377
 20
471.4476775770549
 30
0.0
 10
533.4563590899335
 20
478.0902835943694
 30
0.0
 10
540.7271843093117
 20
484.5243745501188
 30
0.0
 10
548.0955962620284
 20
490.7314732004574
 30
0.0
 10
555.5486624716492
 20
496.6977131264761
 30
0.0
 10
563.0834578238788
 20
502.4228789718118
 30
0.0
 10
570.6866287952563
 20
507.8932753389365
 30
0.0
 10
578.3416378221889
 20
513.0943095441562
 30
0.0
 10
586.0236072953898
 20
518.0080885430234
 30
0.0
 10
593.7213025697104
 20
522.6270826389027
 30
0.0
 10
601.4233418579029
 20
526.9442086732046
 30
0.0
 10
609.118261555321
 20
530.9529028288758
 30
0.0
 10
616.7934521293844
 20
534.6465551573585
 30
0.0
 10
624.4232585648241
 20
538.0137466564557
 30
0.0
 10
631.9830095812792
 20
541.0433453752182
 30
0.0
 10
639.4499152148207
 20
543.7280259043042
 30
0.0
 10
646.8137316597644
 20
546.066225618187
 30
0.0
 10
654.063389909022
 20
548.05663098918
 30
0.0
 10
661.1886129368418
 20
549.6987049425887
 30
0.0
 10
668.1804866755969
 20
550.9927716330321
 30
0.0
 10
675.0299121579309
 20
551.939310438982
 30
0.0
 10
681.7328981040469
 20
552.540867855914
 30
0.0
 10
688.2481270262303
 20
552.7934278231795
 30
0.0
 10
694.5975073478612
 20
552.7048654391309
 30
0.0
 10
700.6717200390027
 20
552.2598312014666
 30
0.0
 10
705.2162418701573
 20
551.7307921929267
 30
0.0
 10
707.3996596126927
 20
551.3016637973708
 30
0.0
 10
707.8329237762293
 20
551.2160690424714
 30
0.0
  0
SPLINE
  5
124
330
1F
100
AcDbEntity
  8
WIND
  6
Continuous
 62
     7
100
AcDbSpline
210
0.0
220
0.0
230
1.0
 70
     8
 71
     3
 72
    36
 73
    32
 74
     0
 42
0.0000000001583996
 43
0.0000000001
 40
0.067563964326234
 40
0.067563964326234
 40
0.067563964326234
 40
0.067563964326234
 40
0.0818720303583432
 40
0.1131322593109641
 40
0.1423346520440262
 40
0.1728634483935789
 40
0.2024646920603039
 40
0.2318896237877978
 40
0.2614633872365955
 40
0.2913890135922113
 40
0.3217707277922032
 40
0.3526266790875208
 40
0.3839237216402691
 40
0.4155989373045146
 40
0.4475730919623694
 40
0.4797587857975358
 40
0.5120651031357107
 40
0.5444000771767731
 40
0.5766450481096161
 40
0.608706257473551
 40
0.6404972749052048
 40
0.6719389122181247
 40
0.7029657881626402
 40
0.7335373092456519
 40
0.7636547463663117
 40
0.7933862444488283
 40
0.8229018477949733
 40
0.8524958794200012
 40
0.8825354637910668
 40
0.9137579502093975
 40
0.9321459993846029
 40
0.9321459993846029
 40
0.9321459993846029
 40
0.9321459993846029
 10
519.5289303342674
 20
361.1785879250955
 30
0.0
 10
519.5289902652497
 20
361.1780858936705
 30
0.0
 10
519.5123318543755
 20
361.1957368701327
 30
0.0
 10
519.3933720987899
 20
361.369337189932
 30
0.0
 10
519.1429449891518
 20
361.8950323065434
 30
0.0
 10
518.8576915463988
 20
362.766900190024
 30
0.0
 10
518.60498636385
 20
364.0054231103275
 30
0.0
 10
518.4465124130202
 20
365.5594626668577
 30
0.0
 10
518.4229728935959
 20
367.4066723728425
 30
0.0
 10
518.5665219800717
 20
369.5169687634266
 30
0.0
 10
518.9012891153935
 20
371.8552936391208
 30
0.0
 10
519.4435832053006
 20
374.3811722920726
 30
0.0
 10
520.2017905729548
 20
377.0493015083944
 30
0.0
 10
521.1765724673741
 20
379.811193685514
 30
0.0
 10
522.3612788383161
 20
382.6167141827394
 30
0.0
 10
523.7424699572066
 20
385.4154362071526
 30
0.0
 10
525.300456388781
 20
388.1578086853881
 30
0.0
 10
527.0093280730072
 20
390.7954512436518
 30
0.0
 10
528.8376488735264
 20
393.2829312077409
 30
0.0
 10
530.7490385745721
 20
395.5790115823493
 30
0.0
 10
532.7032908175347
 20
397.6483119176884
 30
0.0
 10
534.6564967536747
 20
399.4618422140153
 30
0.0
 10
536.5616441343241
 20
400.9983018341891
 30
0.0
 10
538.3695674996094
 20
402.2456768607258
 30
0.0
 10
540.030312581933
 20
403.2029775419483
 30
0.0
 10
541.4949877206429
 20
403.8819668647828
 30
0.0
 10
542.7178781046852
 20
404.308539664875
 30
0.0
 10
543.6579706126845
 20
404.5237173363544
 30
0.0
 10
544.2868490635901
 20
404.5856503452825
 30
0.0
 10
544.5424247451183
 20
404.5706660602721
 30
0.0
 10
544.5801823923206
 20
404.5643961633632
 30
0.0
 10
544.5801509356776
 20
404.5644088937127
 30
0.0
  0
TEXT
  5
125
330
1F
100
AcDbEntity
  8
1
  6
Continuous
 62
     7
100
AcDbText
 10
1514.3071496018
 20
111.0378243887
 30
0.0
 40
9.7671669079
  1
DENOMINAZIONE
  7
SEACAD_seiso_ttf
 11
1514.3071496018
 21
120.8049912966
 31
0.0
100
AcDbText
 73
     3
  0
TEXT
  5
127
330
1F
100
AcDbEntity
  8
1
  6
Continuous
 62
     7
100
AcDbText
 10
1782.3288956567
 20
138.3529109289
 30
0.0
 40
22.4
  1
±5 %
  7
SEACAD_seiso_ttf
 11
1782.3288956567
 21
160.7529109289
 31
0.0
100
AcDbText
 73
     3
  0
TEXT
  5
128
330
1F
100
AcDbEntity
  8
1
  6
Continuous
 62
     7
100
AcDbText
 10
2205.0490690237
 20
202.8255895997
 30
0.0
 40
25.6
  1
1 : 8
  7
SEACAD_seiso_ttf
 11
2205.0490690237
 21
228.4255895997
 31
0.0
100
AcDbText
 73
     3
  0
LINE
  5
129
330
1F
100
AcDbEntity
  8
1
  6
Continuous
 62
     7
100
AcDbLine
 10
1494.2462144373
 20
129.1836513288
 30
0.0
 11
2274.8527005592
 21
129.1836513288
 31
0.0
  0
LINE
  5
12A
330
1F
100
AcDbEntity
  8
1
  6
Continuous
 62
     7
100
AcDbLine
 10
710.3427320008
 20
58.4755619034
 30
0.0
 11
2274.8527005592
 21
58.4755619034
 31
0.0
  0
INSERT
  5
12C
330
1F
100
AcDbEntity
  8
Default
100
AcDbBlockReference
  2
SEANNOT_GROUP4
 10
0.0
 20
0.0
 30
0.0
  0
TEXT
  5
131
330
1F
100
AcDbEntity
  8
Predefinito
  6
Continuous
 62
     7
100
AcDbText
 10
1304.1391382158
 20
206.6542003732
 30
0.0
 40
12.8
  1
SCARABEO CERAMICHE SRL
  7
SEACAD_seiso_ttfBI
 11
1304.1391382158
 21
219.4542003732
 31
0.0
100
AcDbText
 73
     3
  0
TEXT
  5
133
330
1F
100
AcDbEntity
  8
Predefinito
  6
Continuous
 62
     7
100
AcDbText
 10
1338.9027745794
 20
185.7087458277
 30
0.0
 40
12.8
  1
ROMA - ITALY
  7
SEACAD_seiso_ttfBI
 11
1338.9027745794
 21
198.5087458277
 31
0.0
100
AcDbText
 73
     3
  0
TEXT
  5
134
330
1F
100
AcDbEntity
  8
Predefinito
  6
Continuous
 62
     7
100
AcDbText
 10
1281.7188050958
 20
263.1091153163
 30
0.0
 40
11.2
  1
I.D.R.
  7
SEACAD_seiso_ttf
 11
1281.7188050958
 21
274.3091153163
 31
0.0
100
AcDbText
 73
     3
  0
TEXT
  5
135
330
1F
100
AcDbEntity
  8
Predefinito
  6
Continuous
 62
     7
100
AcDbText
 10
1288.2907602875
 20
289.4505901793
 30
0.0
 40
16.0
  1
1
  7
SEACAD_seiso_ttf
 11
1288.2907602875
 21
305.4505901793
 31
0.0
100
AcDbText
 73
     3
  0
LINE
  5
136
330
1F
100
AcDbEntity
  8
1
  6
Continuous
 62
     7
100
AcDbLine
 10
2032.7016558042
 20
257.1836513288
 30
0.0
 11
2032.7016558042
 21
378.7836513288
 31
0.0
  0
TEXT
  5
137
330
1F
100
AcDbEntity
  8
Predefinito
  6
Continuous
 62
     7
100
AcDbText
 10
1558.8327152255
 20
259.6992742532
 30
0.0
 40
14.0
  1
DESCRIZIONE
  7
SEACAD_seiso_ttf
 11
1558.8327152255
 21
273.6992742532
 31
0.0
100
AcDbText
 73
     3
  0
TEXT
  5
138
330
1F
100
AcDbEntity
  8
Predefinito
  6
Continuous
 62
     7
100
AcDbText
 10
2080.6610891648
 20
261.6617431862
 30
0.0
 40
11.2
  1
DATA
  7
SEACAD_seiso_ttf
 11
2080.6610891648
 21
272.8617431862
 31
0.0
100
AcDbText
 73
     3
  0
TEXT
  5
139
330
1F
100
AcDbEntity
  8
Predefinito
  6
Continuous
 62
     7
100
AcDbText
 10
2198.7592237026
 20
263.09888744
 30
0.0
 40
11.2
  1
FIRMA
  7
SEACAD_seiso_ttf
 11
2198.7592237026
 21
274.29888744
 31
0.0
100
AcDbText
 73
     3
  0
INSERT
  5
13B
330
1F
100
AcDbEntity
  8
Default
100
AcDbBlockReference
  2
SEANNOT_GROUP5
 10
0.0
 20
0.0
 30
0.0
  0
LINE
  5
140
330
1F
100
AcDbEntity
  8
1
  6
Continuous
 62
     7
100
AcDbLine
 10
2183.0958279606
 20
257.1836513288
 30
0.0
 11
2183.0958279606
 21
193.1836513288
 31
0.0
  0
CIRCLE
  5
141
330
1F
100
AcDbEntity
  8
1
  6
Continuous
 62
     7
100
AcDbCircle
 10
2144.406079028
 20
225.1057846513
 30
0.0
 40
18.23294462732581
  0
CIRCLE
  5
142
330
1F
100
AcDbEntity
  8
1
  6
Continuous
 62
     7
100
AcDbCircle
 10
2144.406079028
 20
225.1057846513
 30
0.0
 40
9.116472313662907
  0
INSERT
  5
144
330
1F
100
AcDbEntity
  8
Predefinito
100
AcDbBlockReference
  2
SEANNOT_GROUP6
 10
0.0
 20
0.0
 30
0.0
  0
LINE
  5
149
330
1F
100
AcDbEntity
  8
1
  6
Continuous
 62
     7
100
AcDbLine
 10
2100.28245117
 20
243.3387292787
 30
0.0
 11
2100.28245117
 21
206.872840024
 31
0.0
  0
LINE
  5
14A
330
1F
100
AcDbEntity
  8
1
  6
Continuous
 62
     7
100
AcDbLine
 10
2056.7891608529
 20
234.222256965
 30
0.0
 11
2056.7891608529
 21
215.9893123377
 31
0.0
  0
LINE
  5
14B
330
1F
100
AcDbEntity
  8
1
  6
Continuous
 62
     7
100
AcDbLine
 10
2056.7891608529
 20
234.222256965
 30
0.0
 11
2100.28245117
 21
243.3387292787
 31
0.0
  0
LINE
  5
14C
330
1F
100
AcDbEntity
  8
1
  6
Continuous
 62
     7
100
AcDbLine
 10
2056.7891608529
 20
215.9893123377
 30
0.0
 11
2100.28245117
 21
206.872840024
 31
0.0
  0
INSERT
  5
14E
330
1F
100
AcDbEntity
  8
Predefinito
100
AcDbBlockReference
  2
SEANNOT_GROUP7
 10
0.0
 20
0.0
 30
0.0
  0
LINE
  5
152
330
1F
100
AcDbEntity
  8
1
  6
Continuous
 62
     7
100
AcDbLine
 10
1265.0347448603
 20
282.7938792051
 30
0.0
 11
2274.8527005592
 21
282.7938792051
 31
0.0
  0
LINE
  5
153
330
1F
100
AcDbEntity
  8
1
  6
Continuous
 62
     7
100
AcDbLine
 10
1265.0347448603
 20
314.7938792051
 30
0.0
 11
2274.8527005592
 21
314.7938792051
 31
0.0
  0
LINE
  5
154
330
1F
100
AcDbEntity
  8
1
  6
Continuous
 62
     7
100
AcDbLine
 10
1265.0347448603
 20
346.7938792051
 30
0.0
 11
2274.8527005592
 21
346.7938792051
 31
0.0
  0
LINE
  5
155
330
1F
100
AcDbEntity
  8
1
  6
Continuous
 62
     7
100
AcDbLine
 10
1265.0347448603
 20
378.7938792051
 30
0.0
 11
2274.8527005592
 21
378.7938792051
 31
0.0
  0
TEXT
  5
156
330
1F
100
AcDbEntity
  8
Predefinito
  6
Continuous
 62
     7
100
AcDbText
 10
1287.3816693784
 20
353.4505901793
 30
0.0
 40
16.0
  1
3
  7
SEACAD_seiso_ttf
 11
1287.3816693784
 21
369.4505901793
 31
0.0
100
AcDbText
 73
     3
  0
TEXT
  5
157
330
1F
100
AcDbEntity
  8
Predefinito
  6
Continuous
 62
     7
100
AcDbText
 10
1286.6543966511
 20
321.4505901793
 30
0.0
 40
16.0
  1
2
  7
SEACAD_seiso_ttf
 11
1286.6543966511
 21
337.4505901793
 31
0.0
100
AcDbText
 73
     3
  0
LINE
  5
158
330
1F
100
AcDbEntity
  8
1
  6
Continuous
 62
     7
100
AcDbLine
 10
2183.0958279606
 20
129.1836513288
 30
0.0
 11
2183.0958279606
 21
193.1836513288
 31
0.0
  0
LINE
  5
159
330
1F
100
AcDbEntity
  8
1
  6
Continuous
 62
     7
100
AcDbLine
 10
2183.0958279606
 20
129.1836513288
 30
0.0
 11
2183.0958279606
 21
59.7716518368
 31
0.0
  0
LINE
  5
15A
330
1F
100
AcDbEntity
  8
1
  6
Continuous
 62
     7
100
AcDbLine
 10
1494.2462144373
 20
193.1836513288
 30
0.0
 11
2274.8527005592
 21
193.1836513288
 31
0.0
  0
LINE
  5
15B
330
1F
100
AcDbEntity
  8
1
  6
Continuous
 62
     7
100
AcDbLine
 10
1265.0347448603
 20
257.1836513288
 30
0.0
 11
2274.8527005592
 21
257.1836513288
 31
0.0
  0
TEXT
  5
15C
330
1F
100
AcDbEntity
  8
1
  6
Continuous
 62
     7
100
AcDbText
 10
2188.6339626062
 20
240.8124116653
 30
0.0
 40
9.792
  1
SCALA
  7
SEACAD_seiso_ttf
 11
2188.6339626062
 21
250.6044116653
 31
0.0
100
AcDbText
 73
     3
  0
TEXT
  5
15D
330
1F
100
AcDbEntity
  8
1
  6
Continuous
 62
     7
100
AcDbText
 10
2188.6339626062
 20
112.8124116653
 30
0.0
 40
9.792
  1
FOGLIO
  7
SEACAD_seiso_ttf
 11
2188.6339626062
 21
122.6044116653
 31
0.0
100
AcDbText
 73
     3
  0
TEXT
  5
15E
330
1F
100
AcDbEntity
  8
1
  6
Continuous
 62
     7
100
AcDbText
 10
1625.4525939107
 20
175.1639004174
 30
0.0
 40
9.792
  1
DISEGNATO
  7
SEACAD_seiso_ttf
 11
1625.4525939107
 21
184.9559004174
 31
0.0
100
AcDbText
 73
     3
  0
TEXT
  5
15F
330
1F
100
AcDbEntity
  8
1
  6
Continuous
 62
     7
100
AcDbText
 10
1509.9235459944
 20
172.298385482
 30
0.0
 40
9.792
  1
DATA
  7
SEACAD_seiso_ttf
 11
1509.9235459944
 21
182.090385482
 31
0.0
100
AcDbText
 73
     3
  0
TEXT
  5
160
330
1F
100
AcDbEntity
  8
1
  6
Continuous
 62
     7
100
AcDbText
 10
1737.1319663657
 20
166.2832100579
 30
0.0
 40
9.792
  1
TOLL. GENER.
  7
SEACAD_seiso_ttf
 11
1737.1319663657
 21
176.0752100579
 31
0.0
100
AcDbText
 73
     3
  0
TEXT
  5
161
330
1F
100
AcDbEntity
  8
1
  6
Continuous
 62
     7
100
AcDbText
 10
1503.784089916
 20
239.1203033714
 30
0.0
 40
9.792
  1
MATERIALE
  7
SEACAD_seiso_ttf
 11
1503.784089916
 21
248.9123033714
 31
0.0
100
AcDbText
 73
     3
  0
TEXT
  5
162
330
1F
100
AcDbEntity
  8
Predefinito
  6
Continuous
 62
     7
100
AcDbText
 10
1287.2847575326
 20
145.0412057573
 30
0.0
 40
10.24
  1
Documento riservato a termini di legge
  7
SEACAD_seiso_ttf
 11
1287.2847575326
 21
155.2812057573
 31
0.0
100
AcDbText
 73
     3
  0
TEXT
  5
163
330
1F
100
AcDbEntity
  8
Predefinito
  6
Continuous
 62
     7
100
AcDbText
 10
1283.4447575326
 20
128.2848421209
 30
0.0
 40
10.24
  1
con divieto di riproduzione o di renderlo
  7
SEACAD_seiso_ttf
 11
1283.4447575326
 21
138.5248421209
 31
0.0
100
AcDbText
 73
     3
  0
TEXT
  5
164
330
1F
100
AcDbEntity
  8
Predefinito
  6
Continuous
 62
     7
100
AcDbText
 10
1312.0702120781
 20
111.5284784846
 30
0.0
 40
10.24
  1
comunque noto a terzi senza 
  7
SEACAD_seiso_ttf
 11
1312.0702120781
 21
121.7684784846
 31
0.0
100
AcDbText
 73
     3
  0
TEXT
  5
165
330
1F
100
AcDbEntity
  8
Predefinito
  6
Continuous
 62
     7
100
AcDbText
 10
1328.2447575326
 20
94.7721148482
 30
0.0
 40
10.24
  1
autorizzazione scritta
  7
SEACAD_seiso_ttf
 11
1328.2447575326
 21
105.0121148482
 31
0.0
100
AcDbText
 73
     3
  0
INSERT
  5
167
330
1F
100
AcDbEntity
  8
Predefinito
100
AcDbBlockReference
  2
SEANNOT_GROUP8
 10
0.0
 20
0.0
 30
0.0
  0
INSERT
  5
16C
330
1F
100
AcDbEntity
  8
Predefinito
100
AcDbBlockReference
  2
SEANNOT_GROUP9
 10
0.0
 20
0.0
 30
0.0
  0
TEXT
  5
16F
330
1F
100
AcDbEntity
  8
1
  6
Continuous
 62
     7
100
AcDbText
 10
2187.2490642928
 20
175.3171056733
 30
0.0
 40
9.792
  1
REV.
  7
SEACAD_seiso_ttf
 11
2187.2490642928
 21
185.1091056733
 31
0.0
100
AcDbText
 73
     3
  0
LINE
  5
170
330
1F
100
AcDbEntity
  8
1
  6
Continuous
 62
     7
100
AcDbLine
 10
2032.7016558042
 20
257.1836513288
 30
0.0
 11
2032.7016558042
 21
193.1836513288
 31
0.0
  0
INSERT
  5
172
330
1F
100
AcDbEntity
  8
Predefinito
100
AcDbBlockReference
  2
SEANNOT_GROUP10
 10
0.0
 20
0.0
 30
0.0
  0
TEXT
  5
176
330
1F
100
AcDbEntity
  8
1
  6
Continuous
 62
     7
100
AcDbText
 10
1876.9950404566
 20
240.8124116653
 30
0.0
 40
9.792
  1
NOTE
  7
SEACAD_seiso_ttf
 11
1876.9950404566
 21
250.6044116653
 31
0.0
100
AcDbText
 73
     3
  0
INSERT
  5
178
330
1F
100
AcDbEntity
  8
Predefinito
100
AcDbBlockReference
  2
SEANNOT_GROUP11
 10
0.0
 20
0.0
 30
0.0
  0
TEXT
  5
17B
330
1F
100
AcDbEntity
  8
1
  6
Continuous
 62
     7
100
AcDbText
 10
1876.2014387746
 20
175.8456536957
 30
0.0
 40
9.792
  1
CODICE
  7
SEACAD_seiso_ttf
 11
1876.2014387746
 21
185.6376536957
 31
0.0
100
AcDbText
 73
     3
  0
INSERT
  5
17D
330
1F
100
AcDbEntity
  8
Predefinito
100
AcDbBlockReference
  2
SEANNOT_GROUP12
 10
0.0
 20
0.0
 30
0.0
  0
LINE
  5
181
330
1F
100
AcDbEntity
  8
1
  6
Continuous
 62
     7
100
AcDbLine
 10
2154.3016558042
 20
257.1836513288
 30
0.0
 11
2154.3016558042
 21
378.7836513288
 31
0.0
  0
INSERT
  5
183
330
1F
100
AcDbEntity
  8
Predefinito
100
AcDbBlockReference
  2
SEANNOT_GROUP13
 10
0.0
 20
0.0
 30
0.0
  0
LINE
  5
187
330
1F
100
AcDbEntity
  8
1
  6
Continuous
 62
     7
100
AcDbLine
 10
2274.8527005593
 20
58.2501321268
 30
0.0
 11
86.8513052672
 21
58.2501321268
 31
0.0
  0
LINE
  5
188
330
1F
100
AcDbEntity
  8
1
  6
Continuous
 62
     7
100
AcDbLine
 10
86.8513052672
 20
1622.7601006853
 30
0.0
 11
2274.8527005592
 21
1622.7601006853
 31
0.0
  0
LINE
  5
189
330
1F
100
AcDbEntity
  8
1
  6
Continuous
 62
     7
100
AcDbLine
 10
86.8513052672
 20
1622.7601006853
 30
0.0
 11
86.8513052672
 21
58.2501321268
 31
0.0
  0
LINE
  5
18A
330
1F
100
AcDbEntity
  8
1
  6
Continuous
 62
     7
100
AcDbLine
 10
2274.8527005593
 20
1622.7601006853
 30
0.0
 11
2274.8527005593
 21
58.2501321268
 31
0.0
  0
LINE
  5
18B
330
1F
100
AcDbEntity
  8
Predefinito
  6
Continuous
 62
     7
100
AcDbLine
 10
1859.4824493559
 20
257.1836513288
 30
0.0
 11
1859.4824493559
 21
129.1836513288
 31
0.0
  0
LINE
  5
18C
330
1F
100
AcDbEntity
  8
Predefinito
  6
Continuous
 62
     7
100
AcDbLine
 10
1727.6687623254
 20
193.1836513288
 30
0.0
 11
1727.6687623254
 21
129.1836513288
 31
0.0
  0
LINE
  5
18D
330
1F
100
AcDbEntity
  8
Predefinito
  6
Continuous
 62
     7
100
AcDbLine
 10
1613.7140107017
 20
193.1836513288
 30
0.0
 11
1613.7140107017
 21
129.1836513288
 31
0.0
  0
LINE
  5
18E
330
1F
100
AcDbEntity
  8
Predefinito
  6
Continuous
 62
     7
100
AcDbLine
 10
1494.2462144373
 20
257.1836513288
 30
0.0
 11
1494.2462144373
 21
59.5913080155
 31
0.0
  0
LINE
  5
18F
330
1F
100
AcDbEntity
  8
Predefinito
  6
Continuous
 62
     7
100
AcDbLine
 10
1613.7140107017
 20
59.7716518368
 30
0.0
 11
1613.7140107017
 21
59.5913080155
 31
0.0
  0
LINE
  5
190
330
1F
100
AcDbEntity
  8
Predefinito
  6
Continuous
 62
     7
100
AcDbLine
 10
1265.0347448603
 20
378.7938792051
 30
0.0
 11
1265.0347448603
 21
59.5913080155
 31
0.0
  0
LINE
  5
191
330
1F
100
AcDbEntity
  8
Predefinito
  6
Continuous
 62
     7
100
AcDbLine
 10
1327.5469638359
 20
378.7938792051
 30
0.0
 11
1327.5469638359
 21
257.1836513288
 31
0.0
  0
LINE
  5
192
330
1F
100
AcDbEntity
  8
Predefinito
  6
Continuous
 62
     7
100
AcDbLine
 10
710.3427320008
 20
58.4755619034
 30
0.0
 11
710.3427320008
 21
58.2501321268
 31
0.0
  0
IMAGE
  5
196
330
1F
100
AcDbEntity
  8
0
 92
      140
310
8C00000001000000840000000600000005000000804CACAE35E99340CE92997C883A6C400000000000000000ACA19777F8299740CE92997C883A6C400000000000000000ACA19777F82997400C5450B9CFB26F400000000000000000804CACAE35E993400C5450B9CFB26F400000000000000000804CACAE35E99340CE9299
310
7C883A6C400000000000000000
100
AcDbRasterImage
 90
        0
 10
1274.3024241373
 20
225.8291609764
 30
0.0
 11
0.6939673985706122
 21
0.0
 31
0.0
 12
0.0
 22
0.6939673985706107
 32
0.0
 13
300.0
 23
40.0
340
195
 70
     3
280
     0
281
    50
282
    50
283
     0
360
197
 71
     1
 91
        2
 14
-0.5
 24
-0.5
 14
299.5
 24
39.5
  0
ENDSEC
  0
SECTION
  2
OBJECTS
  0
DICTIONARY
  5
C
330
0
100
AcDbDictionary
281
     1
  3
ACAD_GROUP
350
D
  3
ACAD_IMAGE_DICT
350
194
  3
ACAD_IMAGE_VARS
350
193
  3
ACAD_LAYOUT
350
1A
  3
ACAD_MLINESTYLE
350
17
  3
ACAD_PLOTSETTINGS
350
19
  3
ACAD_PLOTSTYLENAME
350
E
  0
IMAGEDEF_REACTOR
  5
197
330
196
100
AcDbRasterImageDefReactor
 90
        2
330
196
  0
DICTIONARY
  5
D
102
{ACAD_REACTORS
330
C
102
}
330
C
100
AcDbDictionary
281
     1
  0
DICTIONARY
  5
194
102
{ACAD_REACTORS
330
C
102
}
330
C
100
AcDbDictionary
281
     1
  3
Wind_marchioScarabeoCART.jpg
350
195
  0
RASTERVARIABLES
  5
193
102
{ACAD_REACTORS
330
C
102
}
330
C
100
AcDbRasterVariables
 90
        0
 70
     1
 71
     1
 72
     1
  0
DICTIONARY
  5
1A
102
{ACAD_REACTORS
330
C
102
}
330
C
100
AcDbDictionary
281
     1
  3
Layout1
350
1E
  3
Model
350
22
  0
DICTIONARY
  5
17
102
{ACAD_REACTORS
330
C
102
}
330
C
100
AcDbDictionary
281
     1
  3
Standard
350
18
  0
DICTIONARY
  5
19
102
{ACAD_REACTORS
330
C
102
}
330
C
100
AcDbDictionary
281
     1
  0
ACDBDICTIONARYWDFLT
  5
E
102
{ACAD_REACTORS
330
C
102
}
330
C
100
AcDbDictionary
281
     1
  3
Normal
350
F
100
AcDbDictionaryWithDefault
340
F
  0
IMAGEDEF
  5
195
102
{ACAD_REACTORS
330
194
330
197
102
}
330
194
100
AcDbRasterImageDef
 90
        0
  1
Wind_marchioScarabeoCART.jpg
 10
300.0
 20
40.0
 11
0.003333333333333334
 21
0.003333333333333334
280
     1
281
     5
  0
LAYOUT
  5
1E
102
{ACAD_REACTORS
330
1A
102
}
330
1A
100
AcDbPlotSettings
  1

  2
none_device
  4

  6

 40
0.0
 41
0.0
 42
0.0
 43
0.0
 44
0.0
 45
0.0
 46
0.0
 47
0.0
 48
0.0
 49
0.0
140
0.0
141
0.0
142
1.0
143
1.0
 70
   688
 72
     0
 73
     0
 74
     5
  7

 75
    16
147
1.0
148
0.0
149
0.0
100
AcDbLayout
  1
Layout1
 70
     1
 71
     1
 10
0.0
 20
0.0
 11
2376.0
 21
1680.0
 12
0.0
 22
0.0
 32
0.0
 14
0.0
 24
0.0
 34
0.0
 15
2376.0
 25
1680.0
 35
0.0
146
0.0
 13
0.0
 23
0.0
 33
0.0
 16
1.0
 26
0.0
 36
0.0
 17
0.0
 27
1.0
 37
0.0
 76
     0
330
1B
  0
LAYOUT
  5
22
102
{ACAD_REACTORS
330
1A
102
}
330
1A
100
AcDbPlotSettings
  1

  2
none_device
  4

  6

 40
0.0
 41
0.0
 42
0.0
 43
0.0
 44
0.0
 45
0.0
 46
0.0
 47
0.0
 48
0.0
 49
0.0
140
0.0
141
0.0
142
1.0
143
1.0
 70
  1712
 72
     0
 73
     0
 74
     0
  7

 75
     0
147
1.0
148
0.0
149
0.0
100
AcDbLayout
  1
Model
 70
     1
 71
     0
 10
0.0
 20
0.0
 11
2376.0
 21
1680.0
 12
0.0
 22
0.0
 32
0.0
 14
0.0
 24
0.0
 34
0.0
 15
2376.0
 25
1680.0
 35
0.0
146
0.0
 13
0.0
 23
0.0
 33
0.0
 16
1.0
 26
0.0
 36
0.0
 17
0.0
 27
1.0
 37
0.0
 76
     0
330
1F
  0
MLINESTYLE
  5
18
102
{ACAD_REACTORS
330
17
102
}
330
17
100
AcDbMlineStyle
  2
Standard
 70
     0
  3

 62
   256
 51
90.0
 52
90.0
 71
     2
 49
0.5
 62
   256
  6
BYLAYER
 49
-0.5
 62
   256
  6
BYLAYER
  0
ACDBPLACEHOLDER
  5
F
102
{ACAD_REACTORS
330
E
102
}
330
E
  0
ENDSEC
  0
EOF
